  0
SECTION
  2
HEADER
  9
$ACADVER
  1
AC1014
  9
$DWGCODEPAGE
  3
ANSI_1252
  9
$INSBASE
 10
0.0
 20
0.0
 30
0.0
  9
$EXTMIN
 10
-832.31499793
 20
-1012.98620801
  9
$EXTMAX
 10
1877.68500207
 20
957.01379199
  9
$LIMMIN
 10
-832.31499793
 20
-1012.98620801
  9
$LIMMAX
 10
1877.68500207
 20
957.01379199
  9
$ORTHOMODE
 70
     0
  9
$REGENMODE
 70
     1
  9
$FILLMODE
 70
     1
  9
$QTEXTMODE
 70
     0
  9
$MIRRTEXT
 70
     1
  9
$DRAGMODE
 70
     2
  9
$LTSCALE
 40
10.0
  9
$OSMODE
 70
     0
  9
$ATTMODE
 70
     1
  9
$TEXTSIZE
 40
3.5
  9
$TRACEWID
 40
1.0
  9
$TEXTSTYLE
  7
STANDARD
  9
$CLAYER
  8
0
  9
$CELTYPE
  6
BYLAYER
  9
$CECOLOR
 62
   256
  9
$DIMSCALE
 40
1.0
  9
$DIMASZ
 40
2.0
  9
$DIMEXO
 40
5.0
  9
$DIMDLI
 40
10.0
  9
$DIMRND
 40
0.0
  9
$DIMDLE
 40
2.0
  9
$DIMEXE
 40
2.0
  9
$DIMTP
 40
0.0
  9
$DIMTM
 40
0.0
  9
$DIMTXT
 40
2.1
  9
$DIMCEN
 40
1.5
  9
$DIMTSZ
 40
0.0
  9
$DIMTOL
 70
     0
  9
$DIMLIM
 70
     0
  9
$DIMTIH
 70
     1
  9
$DIMTOH
 70
     0
  9
$DIMSE1
 70
     0
  9
$DIMSE2
 70
     0
  9
$DIMTAD
 70
     1
  9
$DIMZIN
 70
     8
  9
$DIMBLK
  1

  9
$DIMASO
 70
     1
  9
$DIMSHO
 70
     1
  9
$DIMPOST
  1

  9
$DIMAPOST
  1

  9
$DIMALT
 70
     0
  9
$DIMALTD
 70
     2
  9
$DIMALTF
 40
25.4
  9
$DIMLFAC
 40
1.0
  9
$DIMTOFL
 70
     0
  9
$DIMTVP
 40
0.0
  9
$DIMTIX
 70
     0
  9
$DIMSOXD
 70
     0
  9
$DIMSAH
 70
     0
  9
$DIMBLK1
  1

  9
$DIMBLK2
  1

  9
$DIMSTYLE
  2
*UNNAMED
  9
$DIMCLRD
 70
     9
  9
$DIMCLRE
 70
     9
  9
$DIMCLRT
 70
     7
  9
$DIMTFAC
 40
1.0
  9
$DIMGAP
 40
0.09
  9
$DIMUNIT
 70
     2
  9
$LUNITS
 70
     2
  9
$LUPREC
 70
     6
  9
$AXISMODE
 70
     0
  9
$AXISUNIT
 10
0.0
 20
0.0
  9
$SKETCHINC
 40
0.1
  9
$FILLETRAD
 40
0.0
  9
$AUNITS
 70
     0
  9
$AUPREC
 70
     0
  9
$MENU
  1
ACAD
  9
$ELEVATION
 40
0.0
  9
$PELEVATION
 40
0.0
  9
$THICKNESS
 40
0.0
  9
$LIMCHECK
 70
     0
  9
$BLIPMODE
 70
     1
  9
$CHAMFERA
 40
0.0
  9
$CHAMFERB
 40
0.0
  9
$SKPOLY
 70
     1
  9
$TDCREATE
 40
2455594.0000000000
  9
$TDUPDATE
 40
2455594.0000000000
  9
$TDINDWG
 40
0.0
  9
$TDUSRTIMER
 40
0.0
  9
$USRTIMER
 70
     1
  9
$ANGBASE
 50
0.0
  9
$ANGDIR
 70
     0
  9
$PDMODE
 70
     0
  9
$PDSIZE
 40
0.0
  9
$PLINEWID
 40
0.0
  9
$COORDS
 70
     2
  9
$SPLFRAME
 70
     0
  9
$SPLINETYPE
 70
     6
  9
$SPLINESEGS
 70
     8
  9
$ATTDIA
 70
     1
  9
$ATTREQ
 70
     1
  9
$HANDLING
 70
     1
  9
$HANDSEED
  5
     1CC
  9
$SURFTAB1
 70
     6
  9
$SURFTAB2
 70
     6
  9
$SURFTYPE
 70
     6
  9
$SURFU
 70
     6
  9
$SURFV
 70
     6
  9
$UCSNAME
  2

  9
$UCSORG
 10
0.0
 20
0.0
 30
0.0
  9
$UCSXDIR
 10
1.0
 20
0.0
 30
0.0
  9
$UCSYDIR
 10
0.0
 20
1.0
 30
0.0
  9
$PUCSNAME
  2

  9
$PUCSORG
 10
0.0
 20
0.0
 30
0.0
  9
$PUCSXDIR
 10
1.0
 20
0.0
 30
0.0
  9
$PUCSYDIR
 10
0.0
 20
1.0
 30
0.0
  9
$USERI1
 70
     0
  9
$USERI2
 70
     0
  9
$USERI3
 70
     0
  9
$USERI4
 70
     0
  9
$USERI5
 70
     0
  9
$USERR1
 40
0.0
  9
$USERR2
 40
0.0
  9
$USERR3
 40
0.0
  9
$USERR4
 40
0.0
  9
$USERR5
 40
0.0
  9
$WORLDVIEW
 70
     1
  9
$SHADEDGE
 70
     3
  9
$SHADEDIF
 70
    70
  9
$TILEMODE
 70
     1
  9
$MAXACTVP
 70
    16
  9
$PINSBASE
 10
0.0
 20
0.0
 30
0.0
  9
$PLIMCHECK
 70
     0
  9
$PEXTMIN
 10
1.0000000000000E+20
 20
1.0000000000000E+20
 30
1.0000000000000E+20
  9
$PEXTMAX
 10
-1.0000000000000E+20
 20
-1.0000000000000E+20
 30
-1.0000000000000E+20
  9
$PLIMMIN
 10
0.0
 20
0.0
  9
$UNITMODE
 70
     0
  9
$VISRETAIN
 70
     0
  9
$MEASUREMENT
 70
     1
  0
ENDSEC
  0
SECTION
  2
TABLES
  0
TABLE
  2
VPORT
  5
1B
100
AcDbSymbolTable
 70
     1
  0
ENDTAB
  0
TABLE
  2
STYLE
  5
1C
100
AcDbSymbolTable
 70
     3
  0
STYLE
  5
1D
100
AcDbSymbolTableRecord
100
AcDbTextStyleTableRecord
  2
STANDARD
 70
     0
 40
0.0
 41
1.0
 50
0.0
 71
     0
 42
3.5
  3
MONOTXT
  4

  0
STYLE
  5
1E
100
AcDbSymbolTableRecord
100
AcDbTextStyleTableRecord
  2
CADWORK1
 70
     0
 40
0.0
 41
1.0
 50
0.0
 71
     0
 42
3.5
  3
MONOTXT
  4

  0
STYLE
  5
1F
100
AcDbSymbolTableRecord
100
AcDbTextStyleTableRecord
  2
MONOTXT
 70
     0
 40
0.0
 41
1.0
 50
0.0
 71
     0
 42
3.5
  3
MONOTXT
  4

  0
STYLE
  5
20
100
AcDbSymbolTableRecord
100
AcDbTextStyleTableRecord
  2
WHITNEY_BOOK
 70
     0
 40
0.0
 41
1.0
 50
0.0
 71
     0
 42
3.5
  3

  4

1001
ACAD
1000
Whitney Book
1071
        0
  0
ENDTAB
  0
TABLE
  2
LTYPE
  5
21
100
AcDbSymbolTable
 70
    11
  0
LTYPE
  5
22
100
AcDbSymbolTableRecord
100
AcDbLinetypeTableRecord
  2
BYBLOCK
 70
    64
  3

 72
    65
 73
     0
 40
0.0
  0
LTYPE
  5
23
100
AcDbSymbolTableRecord
100
AcDbLinetypeTableRecord
  2
BYLAYER
 70
    64
  3

 72
    65
 73
     0
 40
0.0
  0
LTYPE
  5
24
100
AcDbSymbolTableRecord
100
AcDbLinetypeTableRecord
  2
CONTINUOUS
 70
    64
  3
Solid line
 72
    65
 73
     0
 40
0.0
  0
LTYPE
  5
25
100
AcDbSymbolTableRecord
100
AcDbLinetypeTableRecord
  2
DOT
 70
    64
  3
. . . . . . . . . . . . . . . . . . . . . . . .
 72
    65
 73
     2
 40
2.5
 49
0.0
 74
     0
 49
-2.5
 74
     0
  0
LTYPE
  5
26
100
AcDbSymbolTableRecord
100
AcDbLinetypeTableRecord
  2
DASHDOT
 70
    64
  3
 __ . __ . __ . __ . __ . __ . __ . __ . __ . __
 72
    65
 73
     4
 40
10.0
 49
5.0
 74
     0
 49
-2.5
 74
     0
 49
0.0
 74
     0
 49
-2.5
 74
     0
  0
LTYPE
  5
27
100
AcDbSymbolTableRecord
100
AcDbLinetypeTableRecord
  2
DAL
 70
    64
  3
Solid line (for MAPS)
 72
    65
 73
     0
 40
0.0
  0
LTYPE
  5
28
100
AcDbSymbolTableRecord
100
AcDbLinetypeTableRecord
  2
MUR
 70
    64
  3
Solid line (for MAPS)
 72
    65
 73
     0
 40
0.0
  0
LTYPE
  5
29
100
AcDbSymbolTableRecord
100
AcDbLinetypeTableRecord
  2
SOM
 70
    64
  3
Solid line (for MAPS)
 72
    65
 73
     0
 40
0.0
  0
LTYPE
  5
2A
100
AcDbSymbolTableRecord
100
AcDbLinetypeTableRecord
  2
COL
 70
    64
  3
Solid line (for MAPS)
 72
    65
 73
     0
 40
0.0
  0
LTYPE
  5
2B
100
AcDbSymbolTableRecord
100
AcDbLinetypeTableRecord
  2
LGN
 70
    64
  3
Solid line (for MAPS)
 72
    65
 73
     0
 40
0.0
  0
LTYPE
  5
2C
100
AcDbSymbolTableRecord
100
AcDbLinetypeTableRecord
  2
PNT
 70
    64
  3
Solid line (for MAPS)
 72
    65
 73
     0
 40
0.0
  0
ENDTAB
  0
TABLE
  2
LAYER
  5
2D
100
AcDbSymbolTable
 70
     1
  0
LAYER
  5
2E
100
AcDbSymbolTableRecord
100
AcDbLayerTableRecord
  2
0
 70
     0
 62
     1
  6
CONTINUOUS
370
    -3
  0
LAYER
  5
2F
100
AcDbSymbolTableRecord
100
AcDbLayerTableRecord
  2
DETAIL_1
 70
     0
 62
     7
  6
CONTINUOUS
370
    -3
  0
ENDTAB
  0
TABLE
  2
VIEW
  5
30
100
AcDbSymbolTable
 70
     0
  0
ENDTAB
  0
TABLE
  2
UCS
  5
31
100
AcDbSymbolTable
 70
     0
  0
ENDTAB
  0
TABLE
  2
APPID
  5
32
100
AcDbSymbolTable
 70
     1
  0
APPID
  5
33
100
AcDbSymbolTableRecord
100
AcDbRegAppTableRecord
  2
ACAD
 70
     0
  0
ENDTAB
  0
TABLE
  2
DIMSTYLE
  5
34
100
AcDbSymbolTable
 70
     0
  0
ENDTAB
  0
TABLE
  2
BLOCK_RECORD
  5
35
100
AcDbSymbolTable
 70
     0
  0
BLOCK_RECORD
  5
36
100
AcDbSymbolTableRecord
100
AcDbBlockTableRecord
  2
*MODEL_SPACE
  0
BLOCK_RECORD
  5
37
100
AcDbSymbolTableRecord
100
AcDbBlockTableRecord
  2
*PAPER_SPACE
  0
BLOCK_RECORD
  5
38
100
AcDbSymbolTableRecord
100
AcDbBlockTableRecord
  2
CDWK_EXTR_0
  0
BLOCK_RECORD
  5
39
100
AcDbSymbolTableRecord
100
AcDbBlockTableRecord
  2
CDWK_EXTR_1D
  0
BLOCK_RECORD
  5
3A
100
AcDbSymbolTableRecord
100
AcDbBlockTableRecord
  2
CDWK_EXTR_1G
  0
BLOCK_RECORD
  5
3B
100
AcDbSymbolTableRecord
100
AcDbBlockTableRecord
  2
CDWK_EXTR_2
  0
BLOCK_RECORD
  5
3C
100
AcDbSymbolTableRecord
100
AcDbBlockTableRecord
  2
CDWK_EXTR_3
  0
BLOCK_RECORD
  5
3D
100
AcDbSymbolTableRecord
100
AcDbBlockTableRecord
  2
CDWK_EXTR_4
  0
BLOCK_RECORD
  5
3E
100
AcDbSymbolTableRecord
100
AcDbBlockTableRecord
  2
CDWK_PTTYP0
  0
BLOCK_RECORD
  5
3F
100
AcDbSymbolTableRecord
100
AcDbBlockTableRecord
  2
*X1
  0
BLOCK_RECORD
  5
40
100
AcDbSymbolTableRecord
100
AcDbBlockTableRecord
  2
*X2
  0
BLOCK_RECORD
  5
41
100
AcDbSymbolTableRecord
100
AcDbBlockTableRecord
  2
*X3
  0
BLOCK_RECORD
  5
42
100
AcDbSymbolTableRecord
100
AcDbBlockTableRecord
  2
*X4
  0
BLOCK_RECORD
  5
43
100
AcDbSymbolTableRecord
100
AcDbBlockTableRecord
  2
*X5
  0
BLOCK_RECORD
  5
44
100
AcDbSymbolTableRecord
100
AcDbBlockTableRecord
  2
*X6
  0
BLOCK_RECORD
  5
45
100
AcDbSymbolTableRecord
100
AcDbBlockTableRecord
  2
*X7
  0
BLOCK_RECORD
  5
46
100
AcDbSymbolTableRecord
100
AcDbBlockTableRecord
  2
*X8
  0
BLOCK_RECORD
  5
47
100
AcDbSymbolTableRecord
100
AcDbBlockTableRecord
  2
*X9
  0
ENDTAB
  0
ENDSEC
  0
SECTION
  2
BLOCKS
  0
BLOCK
  5
48
100
AcDbEntity
  8
0
100
AcDbBlockBegin
  2
*MODEL_SPACE
 70
     0
 10
0.0
 20
0.0
 30
0.0
  3
*MODEL_SPACE
  1

  0
ENDBLK
  5
49
100
AcDbEntity
100
AcDbBlockEnd
  0
BLOCK
  5
4A
100
AcDbEntity
  8
0
100
AcDbBlockBegin
  2
*PAPER_SPACE
 70
     0
 10
0.0
 20
0.0
 30
0.0
  3
*PAPER_SPACE
  1

  0
ENDBLK
  5
4B
100
AcDbEntity
100
AcDbBlockEnd
  0
BLOCK
  5
4C
100
AcDbEntity
  8
0
100
AcDbBlockBegin
  2
CDWK_EXTR_0
 70
     0
 10
0.0
 20
0.0
 30
0.0
  3
CDWK_EXTR_0
  1

  4
Cadwork line-extremity
  0
LINE
  5
4D
100
AcDbEntity
  8
0
 62
     0
370
    -2
100
AcDbLine
 10
0.0
 20
0.0
 30
0.0
 11
2.0
 21
0.5
 31
0.0
  0
LINE
  5
4E
100
AcDbEntity
  8
0
 62
     0
370
    -2
100
AcDbLine
 10
0.0
 20
0.0
 30
0.0
 11
2.0
 21
-0.5
 31
0.0
  0
LINE
  5
4F
100
AcDbEntity
  8
0
 62
     0
370
    -2
100
AcDbLine
 10
2.0
 20
0.5
 30
0.0
 11
2.0
 21
-0.5
 31
0.0
  0
ENDBLK
  5
50
100
AcDbEntity
100
AcDbBlockEnd
  0
BLOCK
  5
51
100
AcDbEntity
  8
0
100
AcDbBlockBegin
  2
CDWK_EXTR_1D
 70
     0
 10
0.0
 20
0.0
 30
0.0
  3
CDWK_EXTR_1D
  1

  4
Cadwork line-extremity
  0
LINE
  5
52
100
AcDbEntity
  8
0
 62
     0
370
    -2
100
AcDbLine
 10
0.0
 20
0.0
 30
0.0
 11
0.0
 21
1.0
 31
0.0
  0
LINE
  5
53
100
AcDbEntity
  8
0
 62
     0
370
    -2
100
AcDbLine
 10
0.0
 20
1.0
 30
0.0
 11
0.5
 21
1.5
 31
0.0
  0
LINE
  5
54
100
AcDbEntity
  8
0
 62
     0
370
    -2
100
AcDbLine
 10
0.5
 20
1.5
 30
0.0
 11
1.5
 21
1.5
 31
0.0
  0
ENDBLK
  5
55
100
AcDbEntity
100
AcDbBlockEnd
  0
BLOCK
  5
56
100
AcDbEntity
  8
0
100
AcDbBlockBegin
  2
CDWK_EXTR_1G
 70
     0
 10
0.0
 20
0.0
 30
0.0
  3
CDWK_EXTR_1G
  1

  4
Cadwork line-extremity
  0
LINE
  5
57
100
AcDbEntity
  8
0
 62
     0
370
    -2
100
AcDbLine
 10
0.0
 20
0.0
 30
0.0
 11
0.0
 21
-1.0
 31
0.0
  0
LINE
  5
58
100
AcDbEntity
  8
0
 62
     0
370
    -2
100
AcDbLine
 10
0.0
 20
-1.0
 30
0.0
 11
0.5
 21
-1.5
 31
0.0
  0
LINE
  5
59
100
AcDbEntity
  8
0
 62
     0
370
    -2
100
AcDbLine
 10
0.5
 20
-1.5
 30
0.0
 11
1.5
 21
-1.5
 31
0.0
  0
ENDBLK
  5
5A
100
AcDbEntity
100
AcDbBlockEnd
  0
BLOCK
  5
5B
100
AcDbEntity
  8
0
100
AcDbBlockBegin
  2
CDWK_EXTR_2
 70
     0
 10
0.0
 20
0.0
 30
0.0
  3
CDWK_EXTR_2
  1

  4
Cadwork line-extremity
  0
SOLID
  5
5C
100
AcDbEntity
  8
0
 62
     0
100
AcDbTrace
 10
0.0
 20
0.0
 11
2.0
 21
0.5
 12
2.0
 22
-0.5
 13
2.0
 23
-0.5
  0
ENDBLK
  5
5D
100
AcDbEntity
100
AcDbBlockEnd
  0
BLOCK
  5
5E
100
AcDbEntity
  8
0
100
AcDbBlockBegin
  2
CDWK_EXTR_3
 70
     0
 10
0.0
 20
0.0
 30
0.0
  3
CDWK_EXTR_3
  1

  4
Cadwork line-extremity
  0
SOLID
  5
5F
100
AcDbEntity
  8
0
 62
     0
100
AcDbTrace
 10
0.0
 20
0.0
 11
2.0
 21
0.5
 12
2.0
 22
-0.5
 13
2.0
 23
-0.5
  0
LINE
  5
60
100
AcDbEntity
  8
0
 62
     0
370
    -2
100
AcDbLine
 10
0.0
 20
1.0
 30
0.0
 11
0.0
 21
-1.0
 31
0.0
  0
ENDBLK
  5
61
100
AcDbEntity
100
AcDbBlockEnd
  0
BLOCK
  5
62
100
AcDbEntity
  8
0
100
AcDbBlockBegin
  2
CDWK_EXTR_4
 70
     0
 10
0.0
 20
0.0
 30
0.0
  3
CDWK_EXTR_4
  1

  4
Cadwork line-extremity
  0
HATCH
  5
63
100
AcDbEntity
  8
0
 62
     0
370
   211
100
AcDbHatch
 10
0.0
 20
0.0
 30
0.0
210
0.0
220
0.0
230
1.0
  2
SOLID
 70
     1
 71
     0
 91
        1
 92
        1
 93
        1
 72
     2
 10
0.0
 20
0.0
 40
0.5
 50
0.0
 51
360.0
 73
     1
 97
        0
 75
     0
 76
     1
 98
        1
 10
0.0
 20
0.0
  0
ENDBLK
  5
64
100
AcDbEntity
100
AcDbBlockEnd
  0
BLOCK
  5
65
100
AcDbEntity
  8
0
100
AcDbBlockBegin
  2
CDWK_PTTYP0
 70
     0
 10
0.0
 20
0.0
 30
0.0
  3
CDWK_PTTYP0
  1

  4
Cadwork point
  0
POINT
  5
66
100
AcDbEntity
  8
0
 62
     0
100
AcDbPoint
 10
0.0
 20
0.0
 30
0.0
  0
ENDBLK
  5
67
100
AcDbEntity
100
AcDbBlockEnd
  0
BLOCK
  5
68
100
AcDbEntity
  8
DETAIL_1
100
AcDbBlockBegin
  2
*X1
 70
     1
 10
0.0
 20
0.0
 30
0.0
  3
*X1
  1

  4
Cadwork hatch
  0
LINE
  5
69
100
AcDbEntity
  8
DETAIL_1
 62
    36
  6
CONTINUOUS
370
    -2
100
AcDbLine
 10
-16.32048023
 20
-607.48229944
 30
0.0
 11
183.67956869
 21
-667.48229458
 31
0.0
  0
LINE
  5
6A
100
AcDbEntity
  8
DETAIL_1
 62
    36
  6
CONTINUOUS
370
    -2
100
AcDbLine
 10
-16.32048023
 20
-667.48229458
 30
0.0
 11
183.67956869
 21
-607.48229944
 31
0.0
  0
ENDBLK
  5
6B
100
AcDbEntity
100
AcDbBlockEnd
  0
BLOCK
  5
6C
100
AcDbEntity
  8
DETAIL_1
100
AcDbBlockBegin
  2
*X2
 70
     1
 10
0.0
 20
0.0
 30
0.0
  3
*X2
  1

  4
Cadwork hatch
  0
LINE
  5
6D
100
AcDbEntity
  8
DETAIL_1
 62
    42
  6
CONTINUOUS
370
    -2
100
AcDbLine
 10
-596.62039538
 20
826.64568453
 30
0.0
 11
-621.56632662
 21
826.64568453
 31
0.0
  0
LINE
  5
6E
100
AcDbEntity
  8
DETAIL_1
 62
    42
  6
CONTINUOUS
370
    -2
100
AcDbLine
 10
-586.44557515
 20
817.66040535
 30
0.0
 11
-636.50376421
 21
817.66040535
 31
0.0
  0
LINE
  5
6F
100
AcDbEntity
  8
DETAIL_1
 62
    42
  6
CONTINUOUS
370
    -2
100
AcDbLine
 10
-587.84718308
 20
808.67512617
 30
0.0
 11
-605.78347858
 21
808.67512617
 31
0.0
  0
LINE
  5
70
100
AcDbEntity
  8
DETAIL_1
 62
    42
  6
CONTINUOUS
370
    -2
100
AcDbLine
 10
-605.78347858
 20
808.67512617
 30
0.0
 11
-607.13693775
 21
808.67512617
 31
0.0
  0
LINE
  5
71
100
AcDbEntity
  8
DETAIL_1
 62
    42
  6
CONTINUOUS
370
    -2
100
AcDbLine
 10
-621.88497377
 20
808.67512617
 30
0.0
 11
-643.04840417
 21
808.67512617
 31
0.0
  0
LINE
  5
72
100
AcDbEntity
  8
DETAIL_1
 62
    42
  6
CONTINUOUS
370
    -2
100
AcDbLine
 10
-589.24879102
 20
799.68984699
 30
0.0
 11
-603.52986231
 21
799.68984699
 31
0.0
  0
LINE
  5
73
100
AcDbEntity
  8
DETAIL_1
 62
    42
  6
CONTINUOUS
370
    -2
100
AcDbLine
 10
-603.52986231
 20
799.68984699
 30
0.0
 11
-608.63288301
 21
799.68984699
 31
0.0
  0
LINE
  5
74
100
AcDbEntity
  8
DETAIL_1
 62
    42
  6
CONTINUOUS
370
    -2
100
AcDbLine
 10
-627.09956578
 20
799.68984699
 30
0.0
 11
-646.49949724
 21
799.68984699
 31
0.0
  0
LINE
  5
75
100
AcDbEntity
  8
DETAIL_1
 62
    42
  6
CONTINUOUS
370
    -2
100
AcDbLine
 10
-590.65039895
 20
790.70456781
 30
0.0
 11
-601.27624604
 21
790.70456781
 31
0.0
  0
LINE
  5
76
100
AcDbEntity
  8
DETAIL_1
 62
    42
  6
CONTINUOUS
370
    -2
100
AcDbLine
 10
-601.27624604
 20
790.70456781
 30
0.0
 11
-610.12882827
 21
790.70456781
 31
0.0
  0
LINE
  5
77
100
AcDbEntity
  8
DETAIL_1
 62
    42
  6
CONTINUOUS
370
    -2
100
AcDbLine
 10
-628.56008421
 20
790.70456781
 30
0.0
 11
-648.00335037
 21
790.70456781
 31
0.0
  0
LINE
  5
78
100
AcDbEntity
  8
DETAIL_1
 62
    42
  6
CONTINUOUS
370
    -2
100
AcDbLine
 10
-592.05200689
 20
781.71928863
 30
0.0
 11
-599.02262977
 21
781.71928863
 31
0.0
  0
LINE
  5
79
100
AcDbEntity
  8
DETAIL_1
 62
    42
  6
CONTINUOUS
370
    -2
100
AcDbLine
 10
-599.02262977
 20
781.71928863
 30
0.0
 11
-616.13561202
 21
781.71928863
 31
0.0
  0
LINE
  5
7A
100
AcDbEntity
  8
DETAIL_1
 62
    42
  6
CONTINUOUS
370
    -2
100
AcDbLine
 10
-626.42899112
 20
781.71928863
 30
0.0
 11
-647.9687383
 21
781.71928863
 31
0.0
  0
LINE
  5
7B
100
AcDbEntity
  8
DETAIL_1
 62
    42
  6
CONTINUOUS
370
    -2
100
AcDbLine
 10
-593.45361483
 20
772.73400945
 30
0.0
 11
-596.7690135
 21
772.73400945
 31
0.0
  0
LINE
  5
7C
100
AcDbEntity
  8
DETAIL_1
 62
    42
  6
CONTINUOUS
370
    -2
100
AcDbLine
 10
-596.7690135
 20
772.73400945
 30
0.0
 11
-645.50147429
 21
772.73400945
 31
0.0
  0
LINE
  5
7D
100
AcDbEntity
  8
DETAIL_1
 62
    42
  6
CONTINUOUS
370
    -2
100
AcDbLine
 10
-594.99058962
 20
763.74873027
 30
0.0
 11
-614.72728626
 21
763.74873027
 31
0.0
  0
LINE
  5
7E
100
AcDbEntity
  8
DETAIL_1
 62
    42
  6
CONTINUOUS
370
    -2
100
AcDbLine
 10
-626.69251276
 20
763.74873027
 30
0.0
 11
-633.77621454
 21
763.74873027
 31
0.0
  0
LINE
  5
7F
100
AcDbEntity
  8
DETAIL_1
 62
    42
  6
CONTINUOUS
370
    -2
100
AcDbLine
 10
-597.94611448
 20
754.76345109
 30
0.0
 11
-622.38684023
 21
754.76345109
 31
0.0
  0
LINE
  5
80
100
AcDbEntity
  8
DETAIL_1
 62
    42
  6
CONTINUOUS
370
    -2
100
AcDbLine
 10
-637.45465066
 20
754.76345109
 30
0.0
 11
-650.57417182
 21
754.76345109
 31
0.0
  0
LINE
  5
81
100
AcDbEntity
  8
DETAIL_1
 62
    42
  6
CONTINUOUS
370
    -2
100
AcDbLine
 10
-604.33394244
 20
745.77817191
 30
0.0
 11
-653.51693036
 21
745.77817191
 31
0.0
  0
ENDBLK
  5
82
100
AcDbEntity
100
AcDbBlockEnd
  0
BLOCK
  5
83
100
AcDbEntity
  8
DETAIL_1
100
AcDbBlockBegin
  2
*X3
 70
     1
 10
0.0
 20
0.0
 30
0.0
  3
*X3
  1

  4
Cadwork hatch
  0
LINE
  5
84
100
AcDbEntity
  8
DETAIL_1
 62
    42
  6
CONTINUOUS
370
    -2
100
AcDbLine
 10
-538.5806905
 20
824.58005215
 30
0.0
 11
-569.59833415
 21
824.58005215
 31
0.0
  0
LINE
  5
85
100
AcDbEntity
  8
DETAIL_1
 62
    42
  6
CONTINUOUS
370
    -2
100
AcDbLine
 10
-531.88426349
 20
817.82119926
 30
0.0
 11
-577.60081449
 21
817.82119926
 31
0.0
  0
LINE
  5
86
100
AcDbEntity
  8
DETAIL_1
 62
    42
  6
CONTINUOUS
370
    -2
100
AcDbLine
 10
-528.76054475
 20
811.06234637
 30
0.0
 11
-549.4965061
 21
811.06234637
 31
0.0
  0
LINE
  5
87
100
AcDbEntity
  8
DETAIL_1
 62
    42
  6
CONTINUOUS
370
    -2
100
AcDbLine
 10
-560.56967756
 20
811.06234637
 30
0.0
 11
-582.13880041
 21
811.06234637
 31
0.0
  0
LINE
  5
88
100
AcDbEntity
  8
DETAIL_1
 62
    42
  6
CONTINUOUS
370
    -2
100
AcDbLine
 10
-527.41098638
 20
804.30349349
 30
0.0
 11
-546.78138723
 21
804.30349349
 31
0.0
  0
LINE
  5
89
100
AcDbEntity
  8
DETAIL_1
 62
    42
  6
CONTINUOUS
370
    -2
100
AcDbLine
 10
-565.08133506
 20
804.30349349
 30
0.0
 11
-584.9185914
 21
804.30349349
 31
0.0
  0
LINE
  5
8A
100
AcDbEntity
  8
DETAIL_1
 62
    42
  6
CONTINUOUS
370
    -2
100
AcDbLine
 10
-527.28359866
 20
797.5446406
 30
0.0
 11
-546.66122977
 21
797.5446406
 31
0.0
  0
LINE
  5
8B
100
AcDbEntity
  8
DETAIL_1
 62
    42
  6
CONTINUOUS
370
    -2
100
AcDbLine
 10
-567.01699515
 20
797.5446406
 30
0.0
 11
-586.49787773
 21
797.5446406
 31
0.0
  0
LINE
  5
8C
100
AcDbEntity
  8
DETAIL_1
 62
    42
  6
CONTINUOUS
370
    -2
100
AcDbLine
 10
-528.10132952
 20
790.78578771
 30
0.0
 11
-547.61662172
 21
790.78578771
 31
0.0
  0
LINE
  5
8D
100
AcDbEntity
  8
DETAIL_1
 62
    42
  6
CONTINUOUS
370
    -2
100
AcDbLine
 10
-567.74126403
 20
790.78578771
 30
0.0
 11
-587.08199806
 21
790.78578771
 31
0.0
  0
LINE
  5
8E
100
AcDbEntity
  8
DETAIL_1
 62
    42
  6
CONTINUOUS
370
    -2
100
AcDbLine
 10
-529.92455398
 20
784.02693483
 30
0.0
 11
-549.75685352
 21
784.02693483
 31
0.0
  0
LINE
  5
8F
100
AcDbEntity
  8
DETAIL_1
 62
    42
  6
CONTINUOUS
370
    -2
100
AcDbLine
 10
-549.75685352
 20
784.02693483
 30
0.0
 11
-549.8930401
 21
784.02693483
 31
0.0
  0
LINE
  5
90
100
AcDbEntity
  8
DETAIL_1
 62
    42
  6
CONTINUOUS
370
    -2
100
AcDbLine
 10
-567.27027727
 20
784.02693483
 30
0.0
 11
-586.73114655
 21
784.02693483
 31
0.0
  0
LINE
  5
91
100
AcDbEntity
  8
DETAIL_1
 62
    42
  6
CONTINUOUS
370
    -2
100
AcDbLine
 10
-533.05000462
 20
777.26808194
 30
0.0
 11
-552.23078176
 21
777.26808194
 31
0.0
  0
LINE
  5
92
100
AcDbEntity
  8
DETAIL_1
 62
    42
  6
CONTINUOUS
370
    -2
100
AcDbLine
 10
-552.23078176
 20
777.26808194
 30
0.0
 11
-555.99040274
 21
777.26808194
 31
0.0
  0
LINE
  5
93
100
AcDbEntity
  8
DETAIL_1
 62
    42
  6
CONTINUOUS
370
    -2
100
AcDbLine
 10
-562.74071428
 20
777.26808194
 30
0.0
 11
-585.04907777
 21
777.26808194
 31
0.0
  0
LINE
  5
94
100
AcDbEntity
  8
DETAIL_1
 62
    42
  6
CONTINUOUS
370
    -2
100
AcDbLine
 10
-538.14992577
 20
770.50922906
 30
0.0
 11
-554.70470999
 21
770.50922906
 31
0.0
  0
LINE
  5
95
100
AcDbEntity
  8
DETAIL_1
 62
    42
  6
CONTINUOUS
370
    -2
100
AcDbLine
 10
-554.70470999
 20
770.50922906
 30
0.0
 11
-581.34776934
 21
770.50922906
 31
0.0
  0
LINE
  5
96
100
AcDbEntity
  8
DETAIL_1
 62
    42
  6
CONTINUOUS
370
    -2
100
AcDbLine
 10
-547.87892255
 20
763.75037617
 30
0.0
 11
-557.17863823
 21
763.75037617
 31
0.0
  0
LINE
  5
97
100
AcDbEntity
  8
DETAIL_1
 62
    42
  6
CONTINUOUS
370
    -2
100
AcDbLine
 10
-557.17863823
 20
763.75037617
 30
0.0
 11
-572.94330043
 21
763.75037617
 31
0.0
  0
ENDBLK
  5
98
100
AcDbEntity
100
AcDbBlockEnd
  0
BLOCK
  5
99
100
AcDbEntity
  8
DETAIL_1
100
AcDbBlockBegin
  2
*X4
 70
     1
 10
0.0
 20
0.0
 30
0.0
  3
*X4
  1

  4
Cadwork hatch
  0
LINE
  5
9A
100
AcDbEntity
  8
DETAIL_1
 62
    42
  6
CONTINUOUS
370
    -2
100
AcDbLine
 10
-506.80650277
 20
837.82474081
 30
0.0
 11
-513.27834234
 21
837.82474081
 31
0.0
  0
LINE
  5
9B
100
AcDbEntity
  8
DETAIL_1
 62
    42
  6
CONTINUOUS
370
    -2
100
AcDbLine
 10
-501.39305401
 20
835.15650915
 30
0.0
 11
-504.2705726
 21
835.15650915
 31
0.0
  0
LINE
  5
9C
100
AcDbEntity
  8
DETAIL_1
 62
    42
  6
CONTINUOUS
370
    -2
100
AcDbLine
 10
-515.86543429
 20
835.15650915
 30
0.0
 11
-518.67358624
 21
835.15650915
 31
0.0
  0
LINE
  5
9D
100
AcDbEntity
  8
DETAIL_1
 62
    42
  6
CONTINUOUS
370
    -2
100
AcDbLine
 10
-499.10313107
 20
832.4882775
 30
0.0
 11
-501.24844127
 21
832.4882775
 31
0.0
  0
LINE
  5
9E
100
AcDbEntity
  8
DETAIL_1
 62
    42
  6
CONTINUOUS
370
    -2
100
AcDbLine
 10
-518.88798633
 20
832.4882775
 30
0.0
 11
-520.98853937
 21
832.4882775
 31
0.0
  0
LINE
  5
9F
100
AcDbEntity
  8
DETAIL_1
 62
    42
  6
CONTINUOUS
370
    -2
100
AcDbLine
 10
-497.84372838
 20
829.82004584
 30
0.0
 11
-499.79368641
 21
829.82004584
 31
0.0
  0
LINE
  5
A0
100
AcDbEntity
  8
DETAIL_1
 62
    42
  6
CONTINUOUS
370
    -2
100
AcDbLine
 10
-520.34311325
 20
829.82004584
 30
0.0
 11
-522.27077155
 21
829.82004584
 31
0.0
  0
LINE
  5
A1
100
AcDbEntity
  8
DETAIL_1
 62
    42
  6
CONTINUOUS
370
    -2
100
AcDbLine
 10
-497.21086608
 20
827.15181418
 30
0.0
 11
-499.11277918
 21
827.15181418
 31
0.0
  0
LINE
  5
A2
100
AcDbEntity
  8
DETAIL_1
 62
    42
  6
CONTINUOUS
370
    -2
100
AcDbLine
 10
-521.02424479
 20
827.15181418
 30
0.0
 11
-522.92020236
 21
827.15181418
 31
0.0
  0
LINE
  5
A3
100
AcDbEntity
  8
DETAIL_1
 62
    42
  6
CONTINUOUS
370
    -2
100
AcDbLine
 10
-497.05224106
 20
824.48358252
 30
0.0
 11
-498.94685713
 21
824.48358252
 31
0.0
  0
LINE
  5
A4
100
AcDbEntity
  8
DETAIL_1
 62
    42
  6
CONTINUOUS
370
    -2
100
AcDbLine
 10
-521.1901352
 20
824.48358252
 30
0.0
 11
-523.08443418
 21
824.48358252
 31
0.0
  0
LINE
  5
A5
100
AcDbEntity
  8
DETAIL_1
 62
    42
  6
CONTINUOUS
370
    -2
100
AcDbLine
 10
-497.32389074
 20
821.81535086
 30
0.0
 11
-499.2281041
 21
821.81535086
 31
0.0
  0
LINE
  5
A6
100
AcDbEntity
  8
DETAIL_1
 62
    42
  6
CONTINUOUS
370
    -2
100
AcDbLine
 10
-520.90608883
 20
821.81535086
 30
0.0
 11
-522.82143686
 21
821.81535086
 31
0.0
  0
LINE
  5
A7
100
AcDbEntity
  8
DETAIL_1
 62
    42
  6
CONTINUOUS
370
    -2
100
AcDbLine
 10
-498.11683586
 20
819.1471192
 30
0.0
 11
-500.07283035
 21
819.1471192
 31
0.0
  0
LINE
  5
A8
100
AcDbEntity
  8
DETAIL_1
 62
    42
  6
CONTINUOUS
370
    -2
100
AcDbLine
 10
-520.05445621
 20
819.1471192
 30
0.0
 11
-522.04773907
 21
819.1471192
 31
0.0
  0
LINE
  5
A9
100
AcDbEntity
  8
DETAIL_1
 62
    42
  6
CONTINUOUS
370
    -2
100
AcDbLine
 10
-499.61098932
 20
816.47888754
 30
0.0
 11
-501.81534998
 21
816.47888754
 31
0.0
  0
LINE
  5
AA
100
AcDbEntity
  8
DETAIL_1
 62
    42
  6
CONTINUOUS
370
    -2
100
AcDbLine
 10
-518.30232625
 20
816.47888754
 30
0.0
 11
-520.57737002
 21
816.47888754
 31
0.0
  0
LINE
  5
AB
100
AcDbEntity
  8
DETAIL_1
 62
    42
  6
CONTINUOUS
370
    -2
100
AcDbLine
 10
-502.353714
 20
813.81065589
 30
0.0
 11
-505.39622103
 21
813.81065589
 31
0.0
  0
LINE
  5
AC
100
AcDbEntity
  8
DETAIL_1
 62
    42
  6
CONTINUOUS
370
    -2
100
AcDbLine
 10
-505.39622103
 20
813.81065589
 30
0.0
 11
-505.74286259
 21
813.81065589
 31
0.0
  0
LINE
  5
AD
100
AcDbEntity
  8
DETAIL_1
 62
    42
  6
CONTINUOUS
370
    -2
100
AcDbLine
 10
-514.37082619
 20
813.81065589
 30
0.0
 11
-517.85589111
 21
813.81065589
 31
0.0
  0
ENDBLK
  5
AE
100
AcDbEntity
100
AcDbBlockEnd
  0
BLOCK
  5
AF
100
AcDbEntity
  8
DETAIL_1
100
AcDbBlockBegin
  2
*X5
 70
     1
 10
0.0
 20
0.0
 30
0.0
  3
*X5
  1

  4
Cadwork hatch
  0
LINE
  5
B0
100
AcDbEntity
  8
DETAIL_1
 62
    42
  6
CONTINUOUS
370
    -2
100
AcDbLine
 10
-507.23497205
 20
832.27760288
 30
0.0
 11
-515.40561293
 21
832.27760288
 31
0.0
  0
LINE
  5
B1
100
AcDbEntity
  8
DETAIL_1
 62
    42
  6
CONTINUOUS
370
    -2
100
AcDbLine
 10
-504.91131379
 20
830.79139287
 30
0.0
 11
-515.40561293
 21
830.79139287
 31
0.0
  0
LINE
  5
B2
100
AcDbEntity
  8
DETAIL_1
 62
    42
  6
CONTINUOUS
370
    -2
100
AcDbLine
 10
-504.19728634
 20
829.30518287
 30
0.0
 11
-508.69485018
 21
829.30518287
 31
0.0
  0
LINE
  5
B3
100
AcDbEntity
  8
DETAIL_1
 62
    42
  6
CONTINUOUS
370
    -2
100
AcDbLine
 10
-511.44471513
 20
829.30518287
 30
0.0
 11
-515.40561293
 21
829.30518287
 31
0.0
  0
LINE
  5
B4
100
AcDbEntity
  8
DETAIL_1
 62
    42
  6
CONTINUOUS
370
    -2
100
AcDbLine
 10
-504.05022645
 20
827.81897286
 30
0.0
 11
-508.00531054
 21
827.81897286
 31
0.0
  0
LINE
  5
B5
100
AcDbEntity
  8
DETAIL_1
 62
    42
  6
CONTINUOUS
370
    -2
100
AcDbLine
 10
-511.44471513
 20
827.81897286
 30
0.0
 11
-515.40561293
 21
827.81897286
 31
0.0
  0
LINE
  5
B6
100
AcDbEntity
  8
DETAIL_1
 62
    42
  6
CONTINUOUS
370
    -2
100
AcDbLine
 10
-504.33237554
 20
826.33276286
 30
0.0
 11
-507.90855983
 21
826.33276286
 31
0.0
  0
LINE
  5
B7
100
AcDbEntity
  8
DETAIL_1
 62
    42
  6
CONTINUOUS
370
    -2
100
AcDbLine
 10
-507.90855983
 20
826.33276286
 30
0.0
 11
-508.4489806
 21
826.33276286
 31
0.0
  0
LINE
  5
B8
100
AcDbEntity
  8
DETAIL_1
 62
    42
  6
CONTINUOUS
370
    -2
100
AcDbLine
 10
-511.44471513
 20
826.33276286
 30
0.0
 11
-515.40561293
 21
826.33276286
 31
0.0
  0
LINE
  5
B9
100
AcDbEntity
  8
DETAIL_1
 62
    42
  6
CONTINUOUS
370
    -2
100
AcDbLine
 10
-505.30511893
 20
824.84655285
 30
0.0
 11
-507.80850219
 21
824.84655285
 31
0.0
  0
LINE
  5
BA
100
AcDbEntity
  8
DETAIL_1
 62
    42
  6
CONTINUOUS
370
    -2
100
AcDbLine
 10
-507.80850219
 20
824.84655285
 30
0.0
 11
-515.40561293
 21
824.84655285
 31
0.0
  0
LINE
  5
BB
100
AcDbEntity
  8
DETAIL_1
 62
    42
  6
CONTINUOUS
370
    -2
100
AcDbLine
 10
-506.29223628
 20
823.36034285
 30
0.0
 11
-507.70844456
 21
823.36034285
 31
0.0
  0
LINE
  5
BC
100
AcDbEntity
  8
DETAIL_1
 62
    42
  6
CONTINUOUS
370
    -2
100
AcDbLine
 10
-507.70844456
 20
823.36034285
 30
0.0
 11
-515.40561293
 21
823.36034285
 31
0.0
  0
LINE
  5
BD
100
AcDbEntity
  8
DETAIL_1
 62
    42
  6
CONTINUOUS
370
    -2
100
AcDbLine
 10
-505.3010067
 20
821.87413284
 30
0.0
 11
-507.60838693
 21
821.87413284
 31
0.0
  0
LINE
  5
BE
100
AcDbEntity
  8
DETAIL_1
 62
    42
  6
CONTINUOUS
370
    -2
100
AcDbLine
 10
-507.60838693
 20
821.87413284
 30
0.0
 11
-509.9134742
 21
821.87413284
 31
0.0
  0
LINE
  5
BF
100
AcDbEntity
  8
DETAIL_1
 62
    42
  6
CONTINUOUS
370
    -2
100
AcDbLine
 10
-511.44471513
 20
821.87413284
 30
0.0
 11
-515.40561293
 21
821.87413284
 31
0.0
  0
LINE
  5
C0
100
AcDbEntity
  8
DETAIL_1
 62
    42
  6
CONTINUOUS
370
    -2
100
AcDbLine
 10
-504.30977713
 20
820.38792284
 30
0.0
 11
-507.50832929
 21
820.38792284
 31
0.0
  0
LINE
  5
C1
100
AcDbEntity
  8
DETAIL_1
 62
    42
  6
CONTINUOUS
370
    -2
100
AcDbLine
 10
-507.50832929
 20
820.38792284
 30
0.0
 11
-508.97676656
 21
820.38792284
 31
0.0
  0
LINE
  5
C2
100
AcDbEntity
  8
DETAIL_1
 62
    42
  6
CONTINUOUS
370
    -2
100
AcDbLine
 10
-511.44471513
 20
820.38792284
 30
0.0
 11
-515.40561293
 21
820.38792284
 31
0.0
  0
LINE
  5
C3
100
AcDbEntity
  8
DETAIL_1
 62
    42
  6
CONTINUOUS
370
    -2
100
AcDbLine
 10
-503.31854755
 20
818.90171283
 30
0.0
 11
-507.40827166
 21
818.90171283
 31
0.0
  0
LINE
  5
C4
100
AcDbEntity
  8
DETAIL_1
 62
    42
  6
CONTINUOUS
370
    -2
100
AcDbLine
 10
-507.40827166
 20
818.90171283
 30
0.0
 11
-508.04005892
 21
818.90171283
 31
0.0
  0
LINE
  5
C5
100
AcDbEntity
  8
DETAIL_1
 62
    42
  6
CONTINUOUS
370
    -2
100
AcDbLine
 10
-511.44471513
 20
818.90171283
 30
0.0
 11
-515.40561293
 21
818.90171283
 31
0.0
  0
ENDBLK
  5
C6
100
AcDbEntity
100
AcDbBlockEnd
  0
BLOCK
  5
C7
100
AcDbEntity
  8
DETAIL_1
100
AcDbBlockBegin
  2
*X6
 70
     1
 10
0.0
 20
0.0
 30
0.0
  3
*X6
  1

  4
Cadwork hatch
  0
LINE
  5
C8
100
AcDbEntity
  8
DETAIL_1
 62
    42
  6
CONTINUOUS
370
    -2
100
AcDbLine
 10
-646.90660893
 20
822.49910286
 30
0.0
 11
-672.24135868
 21
822.49910286
 31
0.0
  0
LINE
  5
C9
100
AcDbEntity
  8
DETAIL_1
 62
    42
  6
CONTINUOUS
370
    -2
100
AcDbLine
 10
-672.24135868
 20
822.49910286
 30
0.0
 11
-691.75444605
 21
822.49910286
 31
0.0
  0
LINE
  5
CA
100
AcDbEntity
  8
DETAIL_1
 62
    42
  6
CONTINUOUS
370
    -2
100
AcDbLine
 10
-717.42289637
 20
822.49910286
 30
0.0
 11
-752.18883195
 21
822.49910286
 31
0.0
  0
LINE
  5
CB
100
AcDbEntity
  8
DETAIL_1
 62
    42
  6
CONTINUOUS
370
    -2
100
AcDbLine
 10
-648.3159155
 20
813.46065118
 30
0.0
 11
-668.45458434
 21
813.46065118
 31
0.0
  0
LINE
  5
CC
100
AcDbEntity
  8
DETAIL_1
 62
    42
  6
CONTINUOUS
370
    -2
100
AcDbLine
 10
-668.45458434
 20
813.46065118
 30
0.0
 11
-701.30200011
 21
813.46065118
 31
0.0
  0
LINE
  5
CD
100
AcDbEntity
  8
DETAIL_1
 62
    42
  6
CONTINUOUS
370
    -2
100
AcDbLine
 10
-712.14357072
 20
813.46065118
 30
0.0
 11
-730.24143109
 21
813.46065118
 31
0.0
  0
LINE
  5
CE
100
AcDbEntity
  8
DETAIL_1
 62
    42
  6
CONTINUOUS
370
    -2
100
AcDbLine
 10
-741.61434638
 20
813.46065118
 30
0.0
 11
-760.46151798
 21
813.46065118
 31
0.0
  0
LINE
  5
CF
100
AcDbEntity
  8
DETAIL_1
 62
    42
  6
CONTINUOUS
370
    -2
100
AcDbLine
 10
-649.72522206
 20
804.4221995
 30
0.0
 11
-669.0576132
 21
804.4221995
 31
0.0
  0
LINE
  5
D0
100
AcDbEntity
  8
DETAIL_1
 62
    42
  6
CONTINUOUS
370
    -2
100
AcDbLine
 10
-686.3015376
 20
804.4221995
 30
0.0
 11
-706.18983653
 21
804.4221995
 31
0.0
  0
LINE
  5
D1
100
AcDbEntity
  8
DETAIL_1
 62
    42
  6
CONTINUOUS
370
    -2
100
AcDbLine
 10
-710.66442484
 20
804.4221995
 30
0.0
 11
-728.07823812
 21
804.4221995
 31
0.0
  0
LINE
  5
D2
100
AcDbEntity
  8
DETAIL_1
 62
    42
  6
CONTINUOUS
370
    -2
100
AcDbLine
 10
-747.22374232
 20
804.4221995
 30
0.0
 11
-764.77846451
 21
804.4221995
 31
0.0
  0
LINE
  5
D3
100
AcDbEntity
  8
DETAIL_1
 62
    42
  6
CONTINUOUS
370
    -2
100
AcDbLine
 10
-651.13452862
 20
795.38374782
 30
0.0
 11
-670.56372353
 21
795.38374782
 31
0.0
  0
LINE
  5
D4
100
AcDbEntity
  8
DETAIL_1
 62
    42
  6
CONTINUOUS
370
    -2
100
AcDbLine
 10
-689.31938918
 20
795.38374782
 30
0.0
 11
-708.65362787
 21
795.38374782
 31
0.0
  0
LINE
  5
D5
100
AcDbEntity
  8
DETAIL_1
 62
    42
  6
CONTINUOUS
370
    -2
100
AcDbLine
 10
-711.20832626
 20
795.38374782
 30
0.0
 11
-748.56732759
 21
795.38374782
 31
0.0
  0
LINE
  5
D6
100
AcDbEntity
  8
DETAIL_1
 62
    42
  6
CONTINUOUS
370
    -2
100
AcDbLine
 10
-748.56732759
 20
795.38374782
 30
0.0
 11
-766.86280154
 21
795.38374782
 31
0.0
  0
LINE
  5
D7
100
AcDbEntity
  8
DETAIL_1
 62
    42
  6
CONTINUOUS
370
    -2
100
AcDbLine
 10
-652.54383518
 20
786.34529614
 30
0.0
 11
-672.17038421
 21
786.34529614
 31
0.0
  0
LINE
  5
D8
100
AcDbEntity
  8
DETAIL_1
 62
    42
  6
CONTINUOUS
370
    -2
100
AcDbLine
 10
-689.59761021
 20
786.34529614
 30
0.0
 11
-709.40925349
 21
786.34529614
 31
0.0
  0
LINE
  5
D9
100
AcDbEntity
  8
DETAIL_1
 62
    42
  6
CONTINUOUS
370
    -2
100
AcDbLine
 10
-748.96308564
 20
786.34529614
 30
0.0
 11
-767.30264863
 21
786.34529614
 31
0.0
  0
LINE
  5
DA
100
AcDbEntity
  8
DETAIL_1
 62
    42
  6
CONTINUOUS
370
    -2
100
AcDbLine
 10
-653.95314175
 20
777.30684446
 30
0.0
 11
-724.35783606
 21
777.30684446
 31
0.0
  0
LINE
  5
DB
100
AcDbEntity
  8
DETAIL_1
 62
    42
  6
CONTINUOUS
370
    -2
100
AcDbLine
 10
-744.07366311
 20
777.30684446
 30
0.0
 11
-765.62147549
 21
777.30684446
 31
0.0
  0
LINE
  5
DC
100
AcDbEntity
  8
DETAIL_1
 62
    42
  6
CONTINUOUS
370
    -2
100
AcDbLine
 10
-655.36244831
 20
768.26839278
 30
0.0
 11
-674.91433851
 21
768.26839278
 31
0.0
  0
LINE
  5
DD
100
AcDbEntity
  8
DETAIL_1
 62
    42
  6
CONTINUOUS
370
    -2
100
AcDbLine
 10
-678.79705867
 20
768.26839278
 30
0.0
 11
-703.59664276
 21
768.26839278
 31
0.0
  0
LINE
  5
DE
100
AcDbEntity
  8
DETAIL_1
 62
    42
  6
CONTINUOUS
370
    -2
100
AcDbLine
 10
-712.11117193
 20
768.26839278
 30
0.0
 11
-759.86397192
 21
768.26839278
 31
0.0
  0
LINE
  5
DF
100
AcDbEntity
  8
DETAIL_1
 62
    42
  6
CONTINUOUS
370
    -2
100
AcDbLine
 10
-657.41753499
 20
759.2299411
 30
0.0
 11
-678.02312206
 21
759.2299411
 31
0.0
  0
LINE
  5
E0
100
AcDbEntity
  8
DETAIL_1
 62
    42
  6
CONTINUOUS
370
    -2
100
AcDbLine
 10
-661.74769101
 20
750.19148942
 30
0.0
 11
-713.28607657
 21
750.19148942
 31
0.0
  0
LINE
  5
E1
100
AcDbEntity
  8
DETAIL_1
 62
    42
  6
CONTINUOUS
370
    -2
100
AcDbLine
 10
-672.71568044
 20
741.15303774
 30
0.0
 11
-707.4246673
 21
741.15303774
 31
0.0
  0
ENDBLK
  5
E2
100
AcDbEntity
100
AcDbBlockEnd
  0
BLOCK
  5
E3
100
AcDbEntity
  8
DETAIL_1
100
AcDbBlockBegin
  2
*X7
 70
     1
 10
0.0
 20
0.0
 30
0.0
  3
*X7
  1

  4
Cadwork hatch
  0
LINE
  5
E4
100
AcDbEntity
  8
DETAIL_1
 62
    28
  6
CONTINUOUS
370
    -2
100
AcDbLine
 10
1436.17321624
 20
804.24928301
 30
0.0
 11
1415.24386804
 21
804.24928301
 31
0.0
  0
LINE
  5
E5
100
AcDbEntity
  8
DETAIL_1
 62
    28
  6
CONTINUOUS
370
    -2
100
AcDbLine
 10
1440.1713978
 20
800.2280366
 30
0.0
 11
1429.98947658
 21
800.2280366
 31
0.0
  0
LINE
  5
E6
100
AcDbEntity
  8
DETAIL_1
 62
    28
  6
CONTINUOUS
370
    -2
100
AcDbLine
 10
1421.30235128
 20
800.2280366
 30
0.0
 11
1411.20713662
 21
800.2280366
 31
0.0
  0
LINE
  5
E7
100
AcDbEntity
  8
DETAIL_1
 62
    28
  6
CONTINUOUS
370
    -2
100
AcDbLine
 10
1442.29090051
 20
796.20679018
 30
0.0
 11
1434.23483863
 21
796.20679018
 31
0.0
  0
LINE
  5
E8
100
AcDbEntity
  8
DETAIL_1
 62
    28
  6
CONTINUOUS
370
    -2
100
AcDbLine
 10
1417.08335725
 20
796.20679018
 30
0.0
 11
1409.0491157
 21
796.20679018
 31
0.0
  0
LINE
  5
E9
100
AcDbEntity
  8
DETAIL_1
 62
    28
  6
CONTINUOUS
370
    -2
100
AcDbLine
 10
1443.40464159
 20
792.18554377
 30
0.0
 11
1435.78221136
 21
792.18554377
 31
0.0
  0
LINE
  5
EA
100
AcDbEntity
  8
DETAIL_1
 62
    28
  6
CONTINUOUS
370
    -2
100
AcDbLine
 10
1415.55139284
 20
792.18554377
 30
0.0
 11
1407.90562778
 21
792.18554377
 31
0.0
  0
LINE
  5
EB
100
AcDbEntity
  8
DETAIL_1
 62
    28
  6
CONTINUOUS
370
    -2
100
AcDbLine
 10
1443.81753062
 20
788.16429735
 30
0.0
 11
1436.29469447
 21
788.16429735
 31
0.0
  0
LINE
  5
EC
100
AcDbEntity
  8
DETAIL_1
 62
    28
  6
CONTINUOUS
370
    -2
100
AcDbLine
 10
1415.0451897
 20
788.16429735
 30
0.0
 11
1407.46995519
 21
788.16429735
 31
0.0
  0
LINE
  5
ED
100
AcDbEntity
  8
DETAIL_1
 62
    28
  6
CONTINUOUS
370
    -2
100
AcDbLine
 10
1443.66166572
 20
784.14305094
 30
0.0
 11
1436.12066067
 21
784.14305094
 31
0.0
  0
LINE
  5
EE
100
AcDbEntity
  8
DETAIL_1
 62
    28
  6
CONTINUOUS
370
    -2
100
AcDbLine
 10
1415.21935841
 20
784.14305094
 30
0.0
 11
1407.60812539
 21
784.14305094
 31
0.0
  0
LINE
  5
EF
100
AcDbEntity
  8
DETAIL_1
 62
    28
  6
CONTINUOUS
370
    -2
100
AcDbLine
 10
1442.87067914
 20
780.12180452
 30
0.0
 11
1435.13273099
 21
780.12180452
 31
0.0
  0
LINE
  5
F0
100
AcDbEntity
  8
DETAIL_1
 62
    28
  6
CONTINUOUS
370
    -2
100
AcDbLine
 10
1416.20553387
 20
780.12180452
 30
0.0
 11
1408.38160927
 21
780.12180452
 31
0.0
  0
LINE
  5
F1
100
AcDbEntity
  8
DETAIL_1
 62
    28
  6
CONTINUOUS
370
    -2
100
AcDbLine
 10
1441.2351093
 20
776.10055811
 30
0.0
 11
1432.62609546
 21
776.10055811
 31
0.0
  0
LINE
  5
F2
100
AcDbEntity
  8
DETAIL_1
 62
    28
  6
CONTINUOUS
370
    -2
100
AcDbLine
 10
1418.70328777
 20
776.10055811
 30
0.0
 11
1410.00138168
 21
776.10055811
 31
0.0
  0
LINE
  5
F3
100
AcDbEntity
  8
DETAIL_1
 62
    28
  6
CONTINUOUS
370
    -2
100
AcDbLine
 10
1438.26561309
 20
772.07931169
 30
0.0
 11
1412.9524265
 21
772.07931169
 31
0.0
  0
LINE
  5
F4
100
AcDbEntity
  8
DETAIL_1
 62
    28
  6
CONTINUOUS
370
    -2
100
AcDbLine
 10
1431.67735068
 20
768.05806528
 30
0.0
 11
1419.51081823
 21
768.05806528
 31
0.0
  0
ENDBLK
  5
F5
100
AcDbEntity
100
AcDbBlockEnd
  0
BLOCK
  5
F6
100
AcDbEntity
  8
DETAIL_1
100
AcDbBlockBegin
  2
*X8
 70
     1
 10
0.0
 20
0.0
 30
0.0
  3
*X8
  1

  4
Cadwork hatch
  0
LINE
  5
F7
100
AcDbEntity
  8
DETAIL_1
 62
    28
  6
CONTINUOUS
370
    -2
100
AcDbLine
 10
1617.43061818
 20
803.1635077
 30
0.0
 11
1613.55735194
 21
803.1635077
 31
0.0
  0
LINE
  5
F8
100
AcDbEntity
  8
DETAIL_1
 62
    28
  6
CONTINUOUS
370
    -2
100
AcDbLine
 10
1613.55735194
 20
803.1635077
 30
0.0
 11
1610.55981855
 21
803.1635077
 31
0.0
  0
LINE
  5
F9
100
AcDbEntity
  8
DETAIL_1
 62
    28
  6
CONTINUOUS
370
    -2
100
AcDbLine
 10
1618.98006539
 20
799.22643169
 30
0.0
 11
1615.10553441
 21
799.22643169
 31
0.0
  0
LINE
  5
FA
100
AcDbEntity
  8
DETAIL_1
 62
    28
  6
CONTINUOUS
370
    -2
100
AcDbLine
 10
1612.70894534
 20
799.22643169
 30
0.0
 11
1609.01682943
 21
799.22643169
 31
0.0
  0
LINE
  5
FB
100
AcDbEntity
  8
DETAIL_1
 62
    28
  6
CONTINUOUS
370
    -2
100
AcDbLine
 10
1620.5295126
 20
795.28935567
 30
0.0
 11
1616.62071692
 21
795.28935567
 31
0.0
  0
LINE
  5
FC
100
AcDbEntity
  8
DETAIL_1
 62
    28
  6
CONTINUOUS
370
    -2
100
AcDbLine
 10
1611.19376283
 20
795.28935567
 30
0.0
 11
1607.47384031
 21
795.28935567
 31
0.0
  0
LINE
  5
FD
100
AcDbEntity
  8
DETAIL_1
 62
    28
  6
CONTINUOUS
370
    -2
100
AcDbLine
 10
1622.07895981
 20
791.35227965
 30
0.0
 11
1618.13589943
 21
791.35227965
 31
0.0
  0
LINE
  5
FE
100
AcDbEntity
  8
DETAIL_1
 62
    28
  6
CONTINUOUS
370
    -2
100
AcDbLine
 10
1609.67858032
 20
791.35227965
 30
0.0
 11
1605.93085119
 21
791.35227965
 31
0.0
  0
LINE
  5
FF
100
AcDbEntity
  8
DETAIL_1
 62
    28
  6
CONTINUOUS
370
    -2
100
AcDbLine
 10
1623.62840702
 20
787.41520363
 30
0.0
 11
1619.65108195
 21
787.41520363
 31
0.0
  0
LINE
  5
100
100
AcDbEntity
  8
DETAIL_1
 62
    28
  6
CONTINUOUS
370
    -2
100
AcDbLine
 10
1608.16339781
 20
787.41520363
 30
0.0
 11
1604.38786207
 21
787.41520363
 31
0.0
  0
LINE
  5
101
100
AcDbEntity
  8
DETAIL_1
 62
    28
  6
CONTINUOUS
370
    -2
100
AcDbLine
 10
1625.17785423
 20
783.47812761
 30
0.0
 11
1602.84487295
 21
783.47812761
 31
0.0
  0
LINE
  5
102
100
AcDbEntity
  8
DETAIL_1
 62
    28
  6
CONTINUOUS
370
    -2
100
AcDbLine
 10
1626.72730144
 20
779.5410516
 30
0.0
 11
1622.71279147
 21
779.5410516
 31
0.0
  0
LINE
  5
103
100
AcDbEntity
  8
DETAIL_1
 62
    28
  6
CONTINUOUS
370
    -2
100
AcDbLine
 10
1605.10664415
 20
779.5410516
 30
0.0
 11
1601.30188383
 21
779.5410516
 31
0.0
  0
LINE
  5
104
100
AcDbEntity
  8
DETAIL_1
 62
    28
  6
CONTINUOUS
370
    -2
100
AcDbLine
 10
1628.27674865
 20
775.60397558
 30
0.0
 11
1624.23638357
 21
775.60397558
 31
0.0
  0
LINE
  5
105
100
AcDbEntity
  8
DETAIL_1
 62
    28
  6
CONTINUOUS
370
    -2
100
AcDbLine
 10
1603.60631059
 20
775.60397558
 30
0.0
 11
1599.75889471
 21
775.60397558
 31
0.0
  0
LINE
  5
106
100
AcDbEntity
  8
DETAIL_1
 62
    28
  6
CONTINUOUS
370
    -2
100
AcDbLine
 10
1629.82619586
 20
771.66689956
 30
0.0
 11
1625.75997568
 21
771.66689956
 31
0.0
  0
LINE
  5
107
100
AcDbEntity
  8
DETAIL_1
 62
    28
  6
CONTINUOUS
370
    -2
100
AcDbLine
 10
1602.10597704
 20
771.66689956
 30
0.0
 11
1598.21590559
 21
771.66689956
 31
0.0
  0
LINE
  5
108
100
AcDbEntity
  8
DETAIL_1
 62
    28
  6
CONTINUOUS
370
    -2
100
AcDbLine
 10
1628.58239338
 20
767.72982354
 30
0.0
 11
1627.28356778
 21
767.72982354
 31
0.0
  0
ENDBLK
  5
109
100
AcDbEntity
100
AcDbBlockEnd
  0
BLOCK
  5
10A
100
AcDbEntity
  8
DETAIL_1
100
AcDbBlockBegin
  2
*X9
 70
     1
 10
0.0
 20
0.0
 30
0.0
  3
*X9
  1

  4
Cadwork hatch
  0
LINE
  5
10B
100
AcDbEntity
  8
DETAIL_1
 62
    28
  6
CONTINUOUS
370
    -2
100
AcDbLine
 10
1755.31381784
 20
803.1635077
 30
0.0
 11
1748.44301821
 21
803.1635077
 31
0.0
  0
LINE
  5
10C
100
AcDbEntity
  8
DETAIL_1
 62
    28
  6
CONTINUOUS
370
    -2
100
AcDbLine
 10
1756.86326505
 20
799.22643169
 30
0.0
 11
1752.98873407
 21
799.22643169
 31
0.0
  0
LINE
  5
10D
100
AcDbEntity
  8
DETAIL_1
 62
    28
  6
CONTINUOUS
370
    -2
100
AcDbLine
 10
1750.592145
 20
799.22643169
 30
0.0
 11
1750.23877968
 21
799.22643169
 31
0.0
  0
LINE
  5
10E
100
AcDbEntity
  8
DETAIL_1
 62
    28
  6
CONTINUOUS
370
    -2
100
AcDbLine
 10
1750.23877968
 20
799.22643169
 30
0.0
 11
1746.90002909
 21
799.22643169
 31
0.0
  0
LINE
  5
10F
100
AcDbEntity
  8
DETAIL_1
 62
    28
  6
CONTINUOUS
370
    -2
100
AcDbLine
 10
1758.41271226
 20
795.28935567
 30
0.0
 11
1754.50391658
 21
795.28935567
 31
0.0
  0
LINE
  5
110
100
AcDbEntity
  8
DETAIL_1
 62
    28
  6
CONTINUOUS
370
    -2
100
AcDbLine
 10
1749.07696249
 20
795.28935567
 30
0.0
 11
1748.2767847
 21
795.28935567
 31
0.0
  0
LINE
  5
111
100
AcDbEntity
  8
DETAIL_1
 62
    28
  6
CONTINUOUS
370
    -2
100
AcDbLine
 10
1748.2767847
 20
795.28935567
 30
0.0
 11
1745.35703997
 21
795.28935567
 31
0.0
  0
LINE
  5
112
100
AcDbEntity
  8
DETAIL_1
 62
    28
  6
CONTINUOUS
370
    -2
100
AcDbLine
 10
1759.96215947
 20
791.35227965
 30
0.0
 11
1756.01909909
 21
791.35227965
 31
0.0
  0
LINE
  5
113
100
AcDbEntity
  8
DETAIL_1
 62
    28
  6
CONTINUOUS
370
    -2
100
AcDbLine
 10
1747.56177997
 20
791.35227965
 30
0.0
 11
1746.31478971
 21
791.35227965
 31
0.0
  0
LINE
  5
114
100
AcDbEntity
  8
DETAIL_1
 62
    28
  6
CONTINUOUS
370
    -2
100
AcDbLine
 10
1746.31478971
 20
791.35227965
 30
0.0
 11
1743.81405085
 21
791.35227965
 31
0.0
  0
LINE
  5
115
100
AcDbEntity
  8
DETAIL_1
 62
    28
  6
CONTINUOUS
370
    -2
100
AcDbLine
 10
1761.51160668
 20
787.41520363
 30
0.0
 11
1757.5342816
 21
787.41520363
 31
0.0
  0
LINE
  5
116
100
AcDbEntity
  8
DETAIL_1
 62
    28
  6
CONTINUOUS
370
    -2
100
AcDbLine
 10
1746.04659746
 20
787.41520363
 30
0.0
 11
1744.35279472
 21
787.41520363
 31
0.0
  0
LINE
  5
117
100
AcDbEntity
  8
DETAIL_1
 62
    28
  6
CONTINUOUS
370
    -2
100
AcDbLine
 10
1744.35279472
 20
787.41520363
 30
0.0
 11
1742.27106173
 21
787.41520363
 31
0.0
  0
LINE
  5
118
100
AcDbEntity
  8
DETAIL_1
 62
    28
  6
CONTINUOUS
370
    -2
100
AcDbLine
 10
1763.06105389
 20
783.47812761
 30
0.0
 11
1742.39079973
 21
783.47812761
 31
0.0
  0
LINE
  5
119
100
AcDbEntity
  8
DETAIL_1
 62
    28
  6
CONTINUOUS
370
    -2
100
AcDbLine
 10
1742.39079973
 20
783.47812761
 30
0.0
 11
1740.72807261
 21
783.47812761
 31
0.0
  0
LINE
  5
11A
100
AcDbEntity
  8
DETAIL_1
 62
    28
  6
CONTINUOUS
370
    -2
100
AcDbLine
 10
1764.6105011
 20
779.5410516
 30
0.0
 11
1760.59599112
 21
779.5410516
 31
0.0
  0
LINE
  5
11B
100
AcDbEntity
  8
DETAIL_1
 62
    28
  6
CONTINUOUS
370
    -2
100
AcDbLine
 10
1742.98984381
 20
779.5410516
 30
0.0
 11
1740.42880475
 21
779.5410516
 31
0.0
  0
LINE
  5
11C
100
AcDbEntity
  8
DETAIL_1
 62
    28
  6
CONTINUOUS
370
    -2
100
AcDbLine
 10
1740.42880475
 20
779.5410516
 30
0.0
 11
1739.18508349
 21
779.5410516
 31
0.0
  0
LINE
  5
11D
100
AcDbEntity
  8
DETAIL_1
 62
    28
  6
CONTINUOUS
370
    -2
100
AcDbLine
 10
1766.15994831
 20
775.60397558
 30
0.0
 11
1762.11958323
 21
775.60397558
 31
0.0
  0
LINE
  5
11E
100
AcDbEntity
  8
DETAIL_1
 62
    28
  6
CONTINUOUS
370
    -2
100
AcDbLine
 10
1741.48951025
 20
775.60397558
 30
0.0
 11
1738.46680976
 21
775.60397558
 31
0.0
  0
LINE
  5
11F
100
AcDbEntity
  8
DETAIL_1
 62
    28
  6
CONTINUOUS
370
    -2
100
AcDbLine
 10
1738.46680976
 20
775.60397558
 30
0.0
 11
1737.64209437
 21
775.60397558
 31
0.0
  0
LINE
  5
120
100
AcDbEntity
  8
DETAIL_1
 62
    28
  6
CONTINUOUS
370
    -2
100
AcDbLine
 10
1767.70939552
 20
771.66689956
 30
0.0
 11
1763.64317533
 21
771.66689956
 31
0.0
  0
LINE
  5
121
100
AcDbEntity
  8
DETAIL_1
 62
    28
  6
CONTINUOUS
370
    -2
100
AcDbLine
 10
1739.98917669
 20
771.66689956
 30
0.0
 11
1736.50481477
 21
771.66689956
 31
0.0
  0
LINE
  5
122
100
AcDbEntity
  8
DETAIL_1
 62
    28
  6
CONTINUOUS
370
    -2
100
AcDbLine
 10
1736.50481477
 20
771.66689956
 30
0.0
 11
1736.09910525
 21
771.66689956
 31
0.0
  0
LINE
  5
123
100
AcDbEntity
  8
DETAIL_1
 62
    28
  6
CONTINUOUS
370
    -2
100
AcDbLine
 10
1766.46559304
 20
767.72982354
 30
0.0
 11
1765.16676744
 21
767.72982354
 31
0.0
  0
ENDBLK
  5
124
100
AcDbEntity
100
AcDbBlockEnd
  0
ENDSEC
  0
SECTION
  2
ENTITIES
  0
INSERT
  5
125
100
AcDbEntity
  8
DETAIL_1
 62
     0
370
   211
100
AcDbBlockReference
  2
*X1
 10
0.0
 20
0.0
 30
0.0
  0
INSERT
  5
126
100
AcDbEntity
  8
DETAIL_1
 62
     0
370
   211
100
AcDbBlockReference
  2
*X2
 10
0.0
 20
0.0
 30
0.0
  0
INSERT
  5
127
100
AcDbEntity
  8
DETAIL_1
 62
     0
370
   211
100
AcDbBlockReference
  2
*X3
 10
0.0
 20
0.0
 30
0.0
  0
INSERT
  5
128
100
AcDbEntity
  8
DETAIL_1
 62
     0
370
   211
100
AcDbBlockReference
  2
*X4
 10
0.0
 20
0.0
 30
0.0
  0
INSERT
  5
129
100
AcDbEntity
  8
DETAIL_1
 62
     0
370
   211
100
AcDbBlockReference
  2
*X5
 10
0.0
 20
0.0
 30
0.0
  0
INSERT
  5
12A
100
AcDbEntity
  8
DETAIL_1
 62
     0
370
   211
100
AcDbBlockReference
  2
*X6
 10
0.0
 20
0.0
 30
0.0
  0
INSERT
  5
12B
100
AcDbEntity
  8
DETAIL_1
 62
     0
370
   211
100
AcDbBlockReference
  2
*X7
 10
0.0
 20
0.0
 30
0.0
  0
INSERT
  5
12C
100
AcDbEntity
  8
DETAIL_1
 62
     0
370
   211
100
AcDbBlockReference
  2
*X8
 10
0.0
 20
0.0
 30
0.0
  0
INSERT
  5
12D
100
AcDbEntity
  8
DETAIL_1
 62
     0
370
   211
100
AcDbBlockReference
  2
*X9
 10
0.0
 20
0.0
 30
0.0
  0
LWPOLYLINE
  5
12E
102
{ACAD_REACTORS
330
12F
102
}
100
AcDbEntity
  8
DETAIL_1
 62
    36
  6
CONTINUOUS
370
    -3
100
AcDbPolyline
 90
        4
 70
     1
 43
0.0
 10
-519.0000001
 20
-30.5
 10
-519.0000001
 20
129.5
 10
-486.0000001
 20
129.5
 10
-486.0000001
 20
-30.5
  0
HATCH
  5
12F
100
AcDbEntity
  8
DETAIL_1
 62
     9
  6
CONTINUOUS
100
AcDbHatch
 10
0.0
 20
0.0
 30
0.0
210
0.0
220
0.0
230
1.0
  2
ANSI31
 70
     0
 71
     1
 91
        1
 92
        7
 72
     0
 73
     1
 93
        4
 10
-519.0000001
 20
-30.5
 10
-519.0000001
 20
129.5
 10
-486.0000001
 20
129.5
 10
-486.0000001
 20
-30.5
 97
        1
330
12E
 75
     0
 76
     2
 52
0.0
 41
6.2992521
 77
     0
 78
     1
 53
45.0
 43
0.0
 44
0.0
 45
14.14213562
 46
-14.14213562
 79
     0
 47
0.775229
 98
        1
 10
0.0
 20
0.0
  0
LWPOLYLINE
  5
130
102
{ACAD_REACTORS
330
131
102
}
100
AcDbEntity
  8
DETAIL_1
 62
    36
  6
CONTINUOUS
370
    -3
100
AcDbPolyline
 90
        4
 70
     1
 43
0.0
 10
-486.0000001
 20
-30.5
 10
-486.0000001
 20
0.0
 10
-276.00000005
 20
0.0
 10
-276.00000005
 20
-30.5
  0
HATCH
  5
131
100
AcDbEntity
  8
DETAIL_1
 62
     9
  6
CONTINUOUS
100
AcDbHatch
 10
0.0
 20
0.0
 30
0.0
210
0.0
220
0.0
230
1.0
  2
ANSI31
 70
     0
 71
     1
 91
        1
 92
        7
 72
     0
 73
     1
 93
        4
 10
-486.0000001
 20
-30.5
 10
-486.0000001
 20
0.0
 10
-276.00000005
 20
0.0
 10
-276.00000005
 20
-30.5
 97
        1
330
130
 75
     0
 76
     2
 52
0.0
 41
6.2992521
 77
     0
 78
     1
 53
45.0
 43
0.0
 44
0.0
 45
14.14213562
 46
-14.14213562
 79
     0
 47
0.775229
 98
        1
 10
0.0
 20
0.0
  0
LWPOLYLINE
  5
132
102
{ACAD_REACTORS
330
133
102
}
100
AcDbEntity
  8
DETAIL_1
 62
    36
  6
CONTINUOUS
370
    -3
100
AcDbPolyline
 90
        9
 70
     1
 43
0.0
 38
2300.0
 39
-2300.0
 10
-759.50000014
 20
-7.5
 10
-749.50000014
 20
-7.5
 10
-749.50000014
 20
-16.5
 10
-759.50000014
 20
-16.5
 10
-759.50000014
 20
-27.5
 10
-756.50000014
 20
-30.5
 10
-729.00000014
 20
-30.5
 10
-729.00000014
 20
129.5
 10
-759.50000014
 20
129.49999998
  0
HATCH
  5
133
100
AcDbEntity
  8
DETAIL_1
 62
     9
  6
CONTINUOUS
100
AcDbHatch
 10
0.0
 20
0.0
 30
0.0
210
0.0
220
0.0
230
1.0
  2
ANSI31
 70
     0
 71
     1
 91
        1
 92
        7
 72
     0
 73
     1
 93
        9
 10
-759.50000014
 20
-7.5
 10
-749.50000014
 20
-7.5
 10
-749.50000014
 20
-16.5
 10
-759.50000014
 20
-16.5
 10
-759.50000014
 20
-27.5
 10
-756.50000014
 20
-30.5
 10
-729.00000014
 20
-30.5
 10
-729.00000014
 20
129.5
 10
-759.50000014
 20
129.49999998
 97
        1
330
132
 75
     0
 76
     2
 52
0.0
 41
6.2992521
 77
     0
 78
     1
 53
45.0
 43
0.0
 44
0.0
 45
14.14213562
 46
-14.14213562
 79
     0
 47
0.775229
 98
        1
 10
0.0
 20
0.0
  0
LWPOLYLINE
  5
134
102
{ACAD_REACTORS
330
135
102
}
100
AcDbEntity
  8
DETAIL_1
 62
    36
  6
CONTINUOUS
370
    -3
100
AcDbPolyline
 90
        9
 70
     1
 43
0.0
 38
2300.0
 39
-2300.0
 10
240.49999995
 20
-7.0
 10
223.49999986
 20
-7.0
 10
223.49999986
 20
-17.0
 10
240.49999995
 20
-17.0
 10
240.49999995
 20
-27.5
 10
237.49999995
 20
-30.5
 10
209.99999995
 20
-30.5
 10
209.99999995
 20
129.5
 10
240.49999995
 20
129.49999998
  0
HATCH
  5
135
100
AcDbEntity
  8
DETAIL_1
 62
     9
  6
CONTINUOUS
100
AcDbHatch
 10
0.0
 20
0.0
 30
0.0
210
0.0
220
0.0
230
1.0
  2
ANSI31
 70
     0
 71
     1
 91
        1
 92
        7
 72
     0
 73
     1
 93
        9
 10
240.49999995
 20
-7.0
 10
223.49999986
 20
-7.0
 10
223.49999986
 20
-17.0
 10
240.49999995
 20
-17.0
 10
240.49999995
 20
-27.5
 10
237.49999995
 20
-30.5
 10
209.99999995
 20
-30.5
 10
209.99999995
 20
129.5
 10
240.49999995
 20
129.49999998
 97
        1
330
134
 75
     0
 76
     2
 52
0.0
 41
6.2992521
 77
     0
 78
     1
 53
45.0
 43
0.0
 44
0.0
 45
14.14213562
 46
-14.14213562
 79
     0
 47
0.775229
 98
        1
 10
0.0
 20
0.0
  0
LWPOLYLINE
  5
136
102
{ACAD_REACTORS
330
137
102
}
100
AcDbEntity
  8
DETAIL_1
 62
    36
  6
CONTINUOUS
370
    -3
100
AcDbPolyline
 90
        4
 70
     1
 43
0.0
 10
-729.00000014
 20
-30.5
 10
-729.00000014
 20
0.0
 10
-519.0000001
 20
0.0
 10
-519.0000001
 20
-30.5
  0
HATCH
  5
137
100
AcDbEntity
  8
DETAIL_1
 62
     9
  6
CONTINUOUS
100
AcDbHatch
 10
0.0
 20
0.0
 30
0.0
210
0.0
220
0.0
230
1.0
  2
ANSI31
 70
     0
 71
     1
 91
        1
 92
        7
 72
     0
 73
     1
 93
        4
 10
-729.00000014
 20
-30.5
 10
-729.00000014
 20
0.0
 10
-519.0000001
 20
0.0
 10
-519.0000001
 20
-30.5
 97
        1
330
136
 75
     0
 76
     2
 52
0.0
 41
6.2992521
 77
     0
 78
     1
 53
45.0
 43
0.0
 44
0.0
 45
14.14213562
 46
-14.14213562
 79
     0
 47
0.775229
 98
        1
 10
0.0
 20
0.0
  0
3DFACE
  5
138
102
{ACAD_REACTORS
330
139
102
}
100
AcDbEntity
  8
DETAIL_1
 62
    36
  6
CONTINUOUS
370
    -3
100
AcDbFace
 70
     0
 10
-749.50000014
 20
-7.5
 30
2300.0
 11
-779.50000014
 21
-7.5
 31
2300.0
 12
-779.50000014
 22
-16.5
 32
2300.0
 13
-749.50000014
 23
-16.5
 33
2300.0
  0
HATCH
  5
139
100
AcDbEntity
  8
DETAIL_1
 62
     9
  6
CONTINUOUS
100
AcDbHatch
 10
0.0
 20
0.0
 30
0.0
210
0.0
220
0.0
230
1.0
  2
ANSI31
 70
     0
 71
     1
 91
        1
 92
        7
 72
     0
 73
     1
 93
        4
 10
-749.50000014
 20
-7.5
 10
-779.50000014
 20
-7.5
 10
-779.50000014
 20
-16.5
 10
-749.50000014
 20
-16.5
 97
        1
330
138
 75
     0
 76
     2
 52
0.0
 41
6.2992521
 77
     0
 78
     1
 53
45.0
 43
0.0
 44
0.0
 45
14.14213562
 46
-14.14213562
 79
     0
 47
0.775229
 98
        1
 10
0.0
 20
0.0
  0
LWPOLYLINE
  5
13A
102
{ACAD_REACTORS
330
13B
102
}
100
AcDbEntity
  8
DETAIL_1
 62
    36
  6
CONTINUOUS
370
    -3
100
AcDbPolyline
 90
        4
 70
     1
 43
0.0
 10
-276.00000005
 20
-30.5
 10
-276.00000005
 20
129.5
 10
-243.00000005
 20
129.5
 10
-243.00000005
 20
-30.5
  0
HATCH
  5
13B
100
AcDbEntity
  8
DETAIL_1
 62
     9
  6
CONTINUOUS
100
AcDbHatch
 10
0.0
 20
0.0
 30
0.0
210
0.0
220
0.0
230
1.0
  2
ANSI31
 70
     0
 71
     1
 91
        1
 92
        7
 72
     0
 73
     1
 93
        4
 10
-276.00000005
 20
-30.5
 10
-276.00000005
 20
129.5
 10
-243.00000005
 20
129.5
 10
-243.00000005
 20
-30.5
 97
        1
330
13A
 75
     0
 76
     2
 52
0.0
 41
6.2992521
 77
     0
 78
     1
 53
45.0
 43
0.0
 44
0.0
 45
14.14213562
 46
-14.14213562
 79
     0
 47
0.775229
 98
        1
 10
0.0
 20
0.0
  0
LWPOLYLINE
  5
13C
102
{ACAD_REACTORS
330
13D
102
}
100
AcDbEntity
  8
DETAIL_1
 62
    36
  6
CONTINUOUS
370
    -3
100
AcDbPolyline
 90
        4
 70
     1
 43
0.0
 10
-243.00000005
 20
-30.5
 10
-243.00000005
 20
0.0
 10
-33.0
 20
0.0
 10
-33.0
 20
-30.5
  0
HATCH
  5
13D
100
AcDbEntity
  8
DETAIL_1
 62
     9
  6
CONTINUOUS
100
AcDbHatch
 10
0.0
 20
0.0
 30
0.0
210
0.0
220
0.0
230
1.0
  2
ANSI31
 70
     0
 71
     1
 91
        1
 92
        7
 72
     0
 73
     1
 93
        4
 10
-243.00000005
 20
-30.5
 10
-243.00000005
 20
0.0
 10
-33.0
 20
0.0
 10
-33.0
 20
-30.5
 97
        1
330
13C
 75
     0
 76
     2
 52
0.0
 41
6.2992521
 77
     0
 78
     1
 53
45.0
 43
0.0
 44
0.0
 45
14.14213562
 46
-14.14213562
 79
     0
 47
0.775229
 98
        1
 10
0.0
 20
0.0
  0
LWPOLYLINE
  5
13E
102
{ACAD_REACTORS
330
13F
102
}
100
AcDbEntity
  8
DETAIL_1
 62
    36
  6
CONTINUOUS
370
    -3
100
AcDbPolyline
 90
        4
 70
     1
 43
0.0
 10
-33.0
 20
-30.5
 10
-33.0
 20
129.5
 10
0.0
 20
129.5
 10
0.0
 20
-30.5
  0
HATCH
  5
13F
100
AcDbEntity
  8
DETAIL_1
 62
     9
  6
CONTINUOUS
100
AcDbHatch
 10
0.0
 20
0.0
 30
0.0
210
0.0
220
0.0
230
1.0
  2
ANSI31
 70
     0
 71
     1
 91
        1
 92
        7
 72
     0
 73
     1
 93
        4
 10
-33.0
 20
-30.5
 10
-33.0
 20
129.5
 10
0.0
 20
129.5
 10
0.0
 20
-30.5
 97
        1
330
13E
 75
     0
 76
     2
 52
0.0
 41
6.2992521
 77
     0
 78
     1
 53
45.0
 43
0.0
 44
0.0
 45
14.14213562
 46
-14.14213562
 79
     0
 47
0.775229
 98
        1
 10
0.0
 20
0.0
  0
LWPOLYLINE
  5
140
102
{ACAD_REACTORS
330
141
102
}
100
AcDbEntity
  8
DETAIL_1
 62
    36
  6
CONTINUOUS
370
    -3
100
AcDbPolyline
 90
        4
 70
     1
 43
0.0
 10
0.0
 20
-30.5
 10
0.0
 20
0.0
 10
210.00000005
 20
0.0
 10
210.00000005
 20
-30.5
  0
HATCH
  5
141
100
AcDbEntity
  8
DETAIL_1
 62
     9
  6
CONTINUOUS
100
AcDbHatch
 10
0.0
 20
0.0
 30
0.0
210
0.0
220
0.0
230
1.0
  2
ANSI31
 70
     0
 71
     1
 91
        1
 92
        7
 72
     0
 73
     1
 93
        4
 10
0.0
 20
-30.5
 10
0.0
 20
0.0
 10
210.00000005
 20
0.0
 10
210.00000005
 20
-30.5
 97
        1
330
140
 75
     0
 76
     2
 52
0.0
 41
6.2992521
 77
     0
 78
     1
 53
45.0
 43
0.0
 44
0.0
 45
14.14213562
 46
-14.14213562
 79
     0
 47
0.775229
 98
        1
 10
0.0
 20
0.0
  0
LWPOLYLINE
  5
142
102
{ACAD_REACTORS
330
143
102
}
100
AcDbEntity
  8
DETAIL_1
 62
    36
  6
CONTINUOUS
370
    -3
100
AcDbPolyline
 90
        4
 70
     1
 43
0.0
 10
-729.00000014
 20
99.0
 10
-729.00000014
 20
129.5
 10
-519.0000001
 20
129.5
 10
-519.0000001
 20
99.0
  0
HATCH
  5
143
100
AcDbEntity
  8
DETAIL_1
 62
     9
  6
CONTINUOUS
100
AcDbHatch
 10
0.0
 20
0.0
 30
0.0
210
0.0
220
0.0
230
1.0
  2
ANSI31
 70
     0
 71
     1
 91
        1
 92
        7
 72
     0
 73
     1
 93
        4
 10
-729.00000014
 20
99.0
 10
-729.00000014
 20
129.5
 10
-519.0000001
 20
129.5
 10
-519.0000001
 20
99.0
 97
        1
330
142
 75
     0
 76
     2
 52
0.0
 41
6.2992521
 77
     0
 78
     1
 53
45.0
 43
0.0
 44
0.0
 45
14.14213562
 46
-14.14213562
 79
     0
 47
0.775229
 98
        1
 10
0.0
 20
0.0
  0
LWPOLYLINE
  5
144
102
{ACAD_REACTORS
330
145
102
}
100
AcDbEntity
  8
DETAIL_1
 62
    36
  6
CONTINUOUS
370
    -3
100
AcDbPolyline
 90
        4
 70
     1
 43
0.0
 10
-486.0000001
 20
99.0
 10
-486.0000001
 20
129.5
 10
-276.00000005
 20
129.5
 10
-276.00000005
 20
99.0
  0
HATCH
  5
145
100
AcDbEntity
  8
DETAIL_1
 62
     9
  6
CONTINUOUS
100
AcDbHatch
 10
0.0
 20
0.0
 30
0.0
210
0.0
220
0.0
230
1.0
  2
ANSI31
 70
     0
 71
     1
 91
        1
 92
        7
 72
     0
 73
     1
 93
        4
 10
-486.0000001
 20
99.0
 10
-486.0000001
 20
129.5
 10
-276.00000005
 20
129.5
 10
-276.00000005
 20
99.0
 97
        1
330
144
 75
     0
 76
     2
 52
0.0
 41
6.2992521
 77
     0
 78
     1
 53
45.0
 43
0.0
 44
0.0
 45
14.14213562
 46
-14.14213562
 79
     0
 47
0.775229
 98
        1
 10
0.0
 20
0.0
  0
LWPOLYLINE
  5
146
102
{ACAD_REACTORS
330
147
102
}
100
AcDbEntity
  8
DETAIL_1
 62
    36
  6
CONTINUOUS
370
    -3
100
AcDbPolyline
 90
        4
 70
     1
 43
0.0
 10
-243.00000005
 20
99.0
 10
-243.00000005
 20
129.5
 10
-33.0
 20
129.5
 10
-33.0
 20
99.0
  0
HATCH
  5
147
100
AcDbEntity
  8
DETAIL_1
 62
     9
  6
CONTINUOUS
100
AcDbHatch
 10
0.0
 20
0.0
 30
0.0
210
0.0
220
0.0
230
1.0
  2
ANSI31
 70
     0
 71
     1
 91
        1
 92
        7
 72
     0
 73
     1
 93
        4
 10
-243.00000005
 20
99.0
 10
-243.00000005
 20
129.5
 10
-33.0
 20
129.5
 10
-33.0
 20
99.0
 97
        1
330
146
 75
     0
 76
     2
 52
0.0
 41
6.2992521
 77
     0
 78
     1
 53
45.0
 43
0.0
 44
0.0
 45
14.14213562
 46
-14.14213562
 79
     0
 47
0.775229
 98
        1
 10
0.0
 20
0.0
  0
LWPOLYLINE
  5
148
102
{ACAD_REACTORS
330
149
102
}
100
AcDbEntity
  8
DETAIL_1
 62
    36
  6
CONTINUOUS
370
    -3
100
AcDbPolyline
 90
        4
 70
     1
 43
0.0
 10
0.0
 20
99.0
 10
0.0
 20
129.5
 10
210.00000005
 20
129.5
 10
210.00000005
 20
99.0
  0
HATCH
  5
149
100
AcDbEntity
  8
DETAIL_1
 62
     9
  6
CONTINUOUS
100
AcDbHatch
 10
0.0
 20
0.0
 30
0.0
210
0.0
220
0.0
230
1.0
  2
ANSI31
 70
     0
 71
     1
 91
        1
 92
        7
 72
     0
 73
     1
 93
        4
 10
0.0
 20
99.0
 10
0.0
 20
129.5
 10
210.00000005
 20
129.5
 10
210.00000005
 20
99.0
 97
        1
330
148
 75
     0
 76
     2
 52
0.0
 41
6.2992521
 77
     0
 78
     1
 53
45.0
 43
0.0
 44
0.0
 45
14.14213562
 46
-14.14213562
 79
     0
 47
0.775229
 98
        1
 10
0.0
 20
0.0
  0
LINE
  5
14A
100
AcDbEntity
  8
DETAIL_1
 62
   106
  6
DASHDOT
370
    -2
100
AcDbLine
 10
-502.5000001
 20
140.75734947
 30
0.0
 11
-502.5000001
 21
-122.67137587
 31
0.0
  0
LINE
  5
14B
100
AcDbEntity
  8
DETAIL_1
 62
   106
  6
DASHDOT
370
    -2
100
AcDbLine
 10
-259.50000005
 20
140.75734947
 30
0.0
 11
-259.50000005
 21
-122.67137587
 31
0.0
  0
LINE
  5
14C
100
AcDbEntity
  8
DETAIL_1
 62
   106
  6
DASHDOT
370
    -2
100
AcDbLine
 10
-16.5
 20
140.75734947
 30
0.0
 11
-16.5
 21
-122.67137587
 31
0.0
  0
LINE
  5
14D
100
AcDbEntity
  8
DETAIL_1
 62
   106
  6
CONTINUOUS
370
    -2
100
AcDbLine
 10
-502.5000001
 20
137.02415356
 30
0.0
 11
-152.2226627
 21
305.7601774
 31
0.0
  0
INSERT
  5
14E
100
AcDbEntity
  8
DETAIL_1
 62
   106
  6
CONTINUOUS
370
     0
100
AcDbBlockReference
  2
CDWK_EXTR_2
 10
-502.5000001
 20
137.02415356
 30
0.0
 41
20.0
 42
20.0
 43
20.0
 50
25.72110335
  0
LINE
  5
14F
100
AcDbEntity
  8
DETAIL_1
 62
   106
  6
CONTINUOUS
370
    -2
100
AcDbLine
 10
-259.50000005
 20
137.02415356
 30
0.0
 11
-152.2226627
 21
305.7601774
 31
0.0
  0
INSERT
  5
150
100
AcDbEntity
  8
DETAIL_1
 62
   106
  6
CONTINUOUS
370
     0
100
AcDbBlockReference
  2
CDWK_EXTR_2
 10
-259.50000005
 20
137.02415356
 30
0.0
 41
20.0
 42
20.0
 43
20.0
 50
57.55301479
  0
LINE
  5
151
100
AcDbEntity
  8
DETAIL_1
 62
   106
  6
CONTINUOUS
370
    -2
100
AcDbLine
 10
-16.5
 20
137.02415356
 30
0.0
 11
-152.2226627
 21
305.7601774
 31
0.0
  0
INSERT
  5
152
100
AcDbEntity
  8
DETAIL_1
 62
   106
  6
CONTINUOUS
370
     0
100
AcDbBlockReference
  2
CDWK_EXTR_2
 10
-16.5
 20
137.02415356
 30
0.0
 41
20.0
 42
20.0
 43
20.0
 50
128.81142707
  0
LWPOLYLINE
  5
153
102
{ACAD_REACTORS
330
154
102
}
100
AcDbEntity
  8
DETAIL_1
 62
    36
  6
CONTINUOUS
370
    -3
100
AcDbPolyline
 90
        4
 70
     1
 43
0.0
 10
-703.8204329
 20
-477.98230174
 10
-703.8204329
 20
-447.48230174
 10
83.67957352
 20
-447.48230174
 10
83.67957352
 20
-477.98230174
  0
HATCH
  5
154
100
AcDbEntity
  8
DETAIL_1
 62
     9
  6
CONTINUOUS
100
AcDbHatch
 10
0.0
 20
0.0
 30
0.0
210
0.0
220
0.0
230
1.0
  2
ANSI31
 70
     0
 71
     1
 91
        1
 92
        7
 72
     0
 73
     1
 93
        4
 10
-703.8204329
 20
-477.98230174
 10
-703.8204329
 20
-447.48230174
 10
83.67957352
 20
-447.48230174
 10
83.67957352
 20
-477.98230174
 97
        1
330
153
 75
     0
 76
     2
 52
0.0
 41
6.2992521
 77
     0
 78
     1
 53
45.0
 43
0.0
 44
0.0
 45
14.14213562
 46
-14.14213562
 79
     0
 47
0.775229
 98
        1
 10
0.0
 20
0.0
  0
LINE
  5
155
100
AcDbEntity
  8
DETAIL_1
 62
    36
  6
CONTINUOUS
370
    -2
100
AcDbLine
 10
83.67957352
 20
-447.48230174
 30
0.0
 11
83.67957352
 21
-607.48229931
 31
0.0
  0
LINE
  5
156
100
AcDbEntity
  8
DETAIL_1
 62
    36
  6
CONTINUOUS
370
    -2
100
AcDbLine
 10
-703.8204329
 20
-447.48230174
 30
0.0
 11
-703.8204329
 21
-607.48229931
 31
0.0
  0
LWPOLYLINE
  5
157
102
{ACAD_REACTORS
330
158
102
}
100
AcDbEntity
  8
DETAIL_1
 62
    36
  6
CONTINUOUS
370
    -3
100
AcDbPolyline
 90
        4
 70
     1
 43
0.0
 10
-703.8204329
 20
-607.48229931
 10
-703.8204329
 20
-576.98229931
 10
83.67957352
 20
-576.98229931
 10
83.67957352
 20
-607.48229931
  0
HATCH
  5
158
100
AcDbEntity
  8
DETAIL_1
 62
     9
  6
CONTINUOUS
100
AcDbHatch
 10
0.0
 20
0.0
 30
0.0
210
0.0
220
0.0
230
1.0
  2
ANSI31
 70
     0
 71
     1
 91
        1
 92
        7
 72
     0
 73
     1
 93
        4
 10
-703.8204329
 20
-607.48229931
 10
-703.8204329
 20
-576.98229931
 10
83.67957352
 20
-576.98229931
 10
83.67957352
 20
-607.48229931
 97
        1
330
157
 75
     0
 76
     2
 52
0.0
 41
6.2992521
 77
     0
 78
     1
 53
45.0
 43
0.0
 44
0.0
 45
14.14213562
 46
-14.14213562
 79
     0
 47
0.775229
 98
        1
 10
0.0
 20
0.0
  0
LWPOLYLINE
  5
159
100
AcDbEntity
  8
DETAIL_1
 62
    36
  6
CONTINUOUS
370
    -3
100
AcDbPolyline
 90
        4
 70
     1
 43
0.0
 10
-16.32042648
 20
-607.48229931
 10
-16.32042648
 20
-667.48229931
 10
183.67957352
 20
-667.48229931
 10
183.67957352
 20
-607.48229931
  0
LWPOLYLINE
  5
15A
100
AcDbEntity
  8
DETAIL_1
 62
    36
  6
CONTINUOUS
370
    -3
100
AcDbPolyline
 90
        4
 70
     1
 43
0.0
 10
-16.32042648
 20
-667.48229931
 10
-16.32042648
 20
-907.48229931
 10
183.67957352
 20
-907.48229931
 10
183.67957352
 20
-667.48229931
  0
LWPOLYLINE
  5
15B
102
{ACAD_REACTORS
330
15C
102
}
100
AcDbEntity
  8
DETAIL_1
 62
     1
  6
CONTINUOUS
370
    -3
100
AcDbPolyline
 90
        4
 70
     1
 43
0.0
 10
-31.32042648
 20
-612.48229931
 10
-31.32042648
 20
-907.48229931
 10
-16.32042648
 20
-907.48229931
 10
-16.32042648
 20
-612.48229931
  0
HATCH
  5
15C
100
AcDbEntity
  8
DETAIL_1
 62
     1
  6
CONTINUOUS
100
AcDbHatch
 10
0.0
 20
0.0
 30
0.0
210
0.0
220
0.0
230
1.0
  2
CDWK10A
 70
     0
 71
     1
 91
        1
 92
        7
 72
     0
 73
     1
 93
        4
 10
-31.32042648
 20
-612.48229931
 10
-31.32042648
 20
-907.48229931
 10
-16.32042648
 20
-907.48229931
 10
-16.32042648
 20
-612.48229931
 97
        1
330
15B
 75
     0
 76
     2
 52
0.0
 41
1.0
 77
     0
 78
     3
 53
45.0
 43
0.0
 44
0.0
 45
0.0
 46
140.0
 79
     0
 53
45.0
 43
0.0
 44
36.0
 45
0.0
 46
140.0
 79
     0
 53
45.0
 43
0.0
 44
72.0
 45
0.0
 46
140.0
 79
     0
 47
0.775229
 98
        1
 10
0.0
 20
0.0
  0
LINE
  5
15D
100
AcDbEntity
  8
DETAIL_1
 62
   106
  6
DASHDOT
370
    -2
100
AcDbLine
 10
32.9041219
 20
-644.51384115
 30
0.0
 11
4.61783644
 21
-366.40173924
 31
0.0
  0
LWPOLYLINE
  5
15E
102
{ACAD_REACTORS
330
15F
102
}
100
AcDbEntity
  8
DETAIL_1
 62
    36
  6
CONTINUOUS
370
    -3
100
AcDbPolyline
 90
        4
 70
     1
 43
0.0
 10
722.05517724
 20
-30.50000002
 10
722.05517724
 20
129.49999998
 10
755.05517724
 20
129.49999998
 10
755.05517724
 20
-30.50000002
  0
HATCH
  5
15F
100
AcDbEntity
  8
DETAIL_1
 62
     9
  6
CONTINUOUS
100
AcDbHatch
 10
0.0
 20
0.0
 30
0.0
210
0.0
220
0.0
230
1.0
  2
ANSI31
 70
     0
 71
     1
 91
        1
 92
        7
 72
     0
 73
     1
 93
        4
 10
722.05517724
 20
-30.50000002
 10
722.05517724
 20
129.49999998
 10
755.05517724
 20
129.49999998
 10
755.05517724
 20
-30.50000002
 97
        1
330
15E
 75
     0
 76
     2
 52
0.0
 41
6.2992521
 77
     0
 78
     1
 53
45.0
 43
0.0
 44
0.0
 45
14.14213562
 46
-14.14213562
 79
     0
 47
0.775229
 98
        1
 10
0.0
 20
0.0
  0
LWPOLYLINE
  5
160
102
{ACAD_REACTORS
330
161
102
}
100
AcDbEntity
  8
DETAIL_1
 62
    36
  6
CONTINUOUS
370
    -3
100
AcDbPolyline
 90
        4
 70
     1
 43
0.0
 10
755.05517724
 20
-30.50000002
 10
755.05517724
 20
-2.2424501366913E-08
 10
965.05517729
 20
-2.2424501366913E-08
 10
965.05517729
 20
-30.50000002
  0
HATCH
  5
161
100
AcDbEntity
  8
DETAIL_1
 62
     9
  6
CONTINUOUS
100
AcDbHatch
 10
0.0
 20
0.0
 30
0.0
210
0.0
220
0.0
230
1.0
  2
ANSI31
 70
     0
 71
     1
 91
        1
 92
        7
 72
     0
 73
     1
 93
        4
 10
755.05517724
 20
-30.50000002
 10
755.05517724
 20
-2.2424501366913E-08
 10
965.05517729
 20
-2.2424501366913E-08
 10
965.05517729
 20
-30.50000002
 97
        1
330
160
 75
     0
 76
     2
 52
0.0
 41
6.2992521
 77
     0
 78
     1
 53
45.0
 43
0.0
 44
0.0
 45
14.14213562
 46
-14.14213562
 79
     0
 47
0.775229
 98
        1
 10
0.0
 20
0.0
  0
LWPOLYLINE
  5
162
102
{ACAD_REACTORS
330
163
102
}
100
AcDbEntity
  8
DETAIL_1
 62
    36
  6
CONTINUOUS
370
    -3
100
AcDbPolyline
 90
        9
 70
     1
 43
0.0
 38
2300.0
 39
-2300.0
 10
481.55517719
 20
-7.50000002
 10
491.55517719
 20
-7.50000002
 10
491.55517719
 20
-16.50000002
 10
481.55517719
 20
-16.50000002
 10
481.55517719
 20
-27.50000002
 10
484.55517719
 20
-30.50000002
 10
512.05517719
 20
-30.50000002
 10
512.05517719
 20
129.49999998
 10
481.55517719
 20
129.49999996
  0
HATCH
  5
163
100
AcDbEntity
  8
DETAIL_1
 62
     9
  6
CONTINUOUS
100
AcDbHatch
 10
0.0
 20
0.0
 30
0.0
210
0.0
220
0.0
230
1.0
  2
ANSI31
 70
     0
 71
     1
 91
        1
 92
        7
 72
     0
 73
     1
 93
        9
 10
481.55517719
 20
-7.50000002
 10
491.55517719
 20
-7.50000002
 10
491.55517719
 20
-16.50000002
 10
481.55517719
 20
-16.50000002
 10
481.55517719
 20
-27.50000002
 10
484.55517719
 20
-30.50000002
 10
512.05517719
 20
-30.50000002
 10
512.05517719
 20
129.49999998
 10
481.55517719
 20
129.49999996
 97
        1
330
162
 75
     0
 76
     2
 52
0.0
 41
6.2992521
 77
     0
 78
     1
 53
45.0
 43
0.0
 44
0.0
 45
14.14213562
 46
-14.14213562
 79
     0
 47
0.775229
 98
        1
 10
0.0
 20
0.0
  0
LWPOLYLINE
  5
164
102
{ACAD_REACTORS
330
165
102
}
100
AcDbEntity
  8
DETAIL_1
 62
    36
  6
CONTINUOUS
370
    -3
100
AcDbPolyline
 90
        9
 70
     1
 43
0.0
 38
2300.0
 39
-2300.0
 10
995.55517729
 20
-7.00000002
 10
978.55517719
 20
-7.00000002
 10
978.55517719
 20
-17.00000002
 10
995.55517729
 20
-17.00000002
 10
995.55517729
 20
-27.50000002
 10
992.55517729
 20
-30.50000002
 10
965.05517729
 20
-30.50000002
 10
965.05517729
 20
129.49999998
 10
995.55517729
 20
129.49999996
  0
HATCH
  5
165
100
AcDbEntity
  8
DETAIL_1
 62
     9
  6
CONTINUOUS
100
AcDbHatch
 10
0.0
 20
0.0
 30
0.0
210
0.0
220
0.0
230
1.0
  2
ANSI31
 70
     0
 71
     1
 91
        1
 92
        7
 72
     0
 73
     1
 93
        9
 10
995.55517729
 20
-7.00000002
 10
978.55517719
 20
-7.00000002
 10
978.55517719
 20
-17.00000002
 10
995.55517729
 20
-17.00000002
 10
995.55517729
 20
-27.50000002
 10
992.55517729
 20
-30.50000002
 10
965.05517729
 20
-30.50000002
 10
965.05517729
 20
129.49999998
 10
995.55517729
 20
129.49999996
 97
        1
330
164
 75
     0
 76
     2
 52
0.0
 41
6.2992521
 77
     0
 78
     1
 53
45.0
 43
0.0
 44
0.0
 45
14.14213562
 46
-14.14213562
 79
     0
 47
0.775229
 98
        1
 10
0.0
 20
0.0
  0
LWPOLYLINE
  5
166
102
{ACAD_REACTORS
330
167
102
}
100
AcDbEntity
  8
DETAIL_1
 62
    36
  6
CONTINUOUS
370
    -3
100
AcDbPolyline
 90
        4
 70
     1
 43
0.0
 10
512.05517719
 20
-30.50000002
 10
512.05517719
 20
-2.2424501366913E-08
 10
722.05517724
 20
-2.2424501366913E-08
 10
722.05517724
 20
-30.50000002
  0
HATCH
  5
167
100
AcDbEntity
  8
DETAIL_1
 62
     9
  6
CONTINUOUS
100
AcDbHatch
 10
0.0
 20
0.0
 30
0.0
210
0.0
220
0.0
230
1.0
  2
ANSI31
 70
     0
 71
     1
 91
        1
 92
        7
 72
     0
 73
     1
 93
        4
 10
512.05517719
 20
-30.50000002
 10
512.05517719
 20
-2.2424501366913E-08
 10
722.05517724
 20
-2.2424501366913E-08
 10
722.05517724
 20
-30.50000002
 97
        1
330
166
 75
     0
 76
     2
 52
0.0
 41
6.2992521
 77
     0
 78
     1
 53
45.0
 43
0.0
 44
0.0
 45
14.14213562
 46
-14.14213562
 79
     0
 47
0.775229
 98
        1
 10
0.0
 20
0.0
  0
3DFACE
  5
168
102
{ACAD_REACTORS
330
169
102
}
100
AcDbEntity
  8
DETAIL_1
 62
    36
  6
CONTINUOUS
370
    -3
100
AcDbFace
 70
     0
 10
491.55517719
 20
-7.50000002
 30
2300.0
 11
461.55517719
 21
-7.50000002
 31
2300.0
 12
461.55517719
 22
-16.50000002
 32
2300.0
 13
491.55517719
 23
-16.50000002
 33
2300.0
  0
HATCH
  5
169
100
AcDbEntity
  8
DETAIL_1
 62
     9
  6
CONTINUOUS
100
AcDbHatch
 10
0.0
 20
0.0
 30
0.0
210
0.0
220
0.0
230
1.0
  2
ANSI31
 70
     0
 71
     1
 91
        1
 92
        7
 72
     0
 73
     1
 93
        4
 10
491.55517719
 20
-7.50000002
 10
461.55517719
 20
-7.50000002
 10
461.55517719
 20
-16.50000002
 10
491.55517719
 20
-16.50000002
 97
        1
330
168
 75
     0
 76
     2
 52
0.0
 41
6.2992521
 77
     0
 78
     1
 53
45.0
 43
0.0
 44
0.0
 45
14.14213562
 46
-14.14213562
 79
     0
 47
0.775229
 98
        1
 10
0.0
 20
0.0
  0
LWPOLYLINE
  5
16A
102
{ACAD_REACTORS
330
16B
102
}
100
AcDbEntity
  8
DETAIL_1
 62
    36
  6
CONTINUOUS
370
    -3
100
AcDbPolyline
 90
        4
 70
     1
 43
0.0
 10
512.05517719
 20
98.99999998
 10
512.05517719
 20
129.49999998
 10
722.05517724
 20
129.49999998
 10
722.05517724
 20
98.99999998
  0
HATCH
  5
16B
100
AcDbEntity
  8
DETAIL_1
 62
     9
  6
CONTINUOUS
100
AcDbHatch
 10
0.0
 20
0.0
 30
0.0
210
0.0
220
0.0
230
1.0
  2
ANSI31
 70
     0
 71
     1
 91
        1
 92
        7
 72
     0
 73
     1
 93
        4
 10
512.05517719
 20
98.99999998
 10
512.05517719
 20
129.49999998
 10
722.05517724
 20
129.49999998
 10
722.05517724
 20
98.99999998
 97
        1
330
16A
 75
     0
 76
     2
 52
0.0
 41
6.2992521
 77
     0
 78
     1
 53
45.0
 43
0.0
 44
0.0
 45
14.14213562
 46
-14.14213562
 79
     0
 47
0.775229
 98
        1
 10
0.0
 20
0.0
  0
LWPOLYLINE
  5
16C
102
{ACAD_REACTORS
330
16D
102
}
100
AcDbEntity
  8
DETAIL_1
 62
    36
  6
CONTINUOUS
370
    -3
100
AcDbPolyline
 90
        4
 70
     1
 43
0.0
 10
755.05517724
 20
98.99999998
 10
755.05517724
 20
129.49999998
 10
965.05517729
 20
129.49999998
 10
965.05517729
 20
98.99999998
  0
HATCH
  5
16D
100
AcDbEntity
  8
DETAIL_1
 62
     9
  6
CONTINUOUS
100
AcDbHatch
 10
0.0
 20
0.0
 30
0.0
210
0.0
220
0.0
230
1.0
  2
ANSI31
 70
     0
 71
     1
 91
        1
 92
        7
 72
     0
 73
     1
 93
        4
 10
755.05517724
 20
98.99999998
 10
755.05517724
 20
129.49999998
 10
965.05517729
 20
129.49999998
 10
965.05517729
 20
98.99999998
 97
        1
330
16C
 75
     0
 76
     2
 52
0.0
 41
6.2992521
 77
     0
 78
     1
 53
45.0
 43
0.0
 44
0.0
 45
14.14213562
 46
-14.14213562
 79
     0
 47
0.775229
 98
        1
 10
0.0
 20
0.0
  0
LINE
  5
16E
100
AcDbEntity
  8
DETAIL_1
 62
   106
  6
DASHDOT
370
    -2
100
AcDbLine
 10
495.55517719
 20
157.04785788
 30
0.0
 11
495.55517719
 21
-122.6713759
 31
0.0
  0
LINE
  5
16F
100
AcDbEntity
  8
DETAIL_1
 62
   106
  6
DASHDOT
370
    -2
100
AcDbLine
 10
738.55517724
 20
157.04785788
 30
0.0
 11
738.55517724
 21
-122.6713759
 31
0.0
  0
LINE
  5
170
100
AcDbEntity
  8
DETAIL_1
 62
   106
  6
CONTINUOUS
370
    -2
100
AcDbLine
 10
495.55517719
 20
157.04785788
 30
0.0
 11
774.56173307
 21
305.7601774
 31
0.0
  0
INSERT
  5
171
100
AcDbEntity
  8
DETAIL_1
 62
   106
  6
CONTINUOUS
370
     0
100
AcDbBlockReference
  2
CDWK_EXTR_2
 10
495.55517719
 20
157.04785788
 30
0.0
 41
20.0
 42
20.0
 43
20.0
 50
28.05790763
  0
LINE
  5
172
100
AcDbEntity
  8
DETAIL_1
 62
   106
  6
CONTINUOUS
370
    -2
100
AcDbLine
 10
738.55517724
 20
157.04785788
 30
0.0
 11
774.56173307
 21
305.7601774
 31
0.0
  0
INSERT
  5
173
100
AcDbEntity
  8
DETAIL_1
 62
   106
  6
CONTINUOUS
370
     0
100
AcDbBlockReference
  2
CDWK_EXTR_2
 10
738.55517724
 20
157.04785788
 30
0.0
 41
20.0
 42
20.0
 43
20.0
 50
76.38935075
  0
LWPOLYLINE
  5
174
102
{ACAD_REACTORS
330
175
102
}
100
AcDbEntity
  8
DETAIL_1
 62
    36
  6
CONTINUOUS
370
    -3
100
AcDbPolyline
 90
        4
 70
     1
 43
0.0
 10
1242.05517724
 20
-30.50000002
 10
1242.05517724
 20
129.49999998
 10
1275.05517724
 20
129.49999998
 10
1275.05517724
 20
-30.50000002
  0
HATCH
  5
175
100
AcDbEntity
  8
DETAIL_1
 62
     9
  6
CONTINUOUS
100
AcDbHatch
 10
0.0
 20
0.0
 30
0.0
210
0.0
220
0.0
230
1.0
  2
ANSI31
 70
     0
 71
     1
 91
        1
 92
        7
 72
     0
 73
     1
 93
        4
 10
1242.05517724
 20
-30.50000002
 10
1242.05517724
 20
129.49999998
 10
1275.05517724
 20
129.49999998
 10
1275.05517724
 20
-30.50000002
 97
        1
330
174
 75
     0
 76
     2
 52
0.0
 41
6.2992521
 77
     0
 78
     1
 53
45.0
 43
0.0
 44
0.0
 45
14.14213562
 46
-14.14213562
 79
     0
 47
0.775229
 98
        1
 10
0.0
 20
0.0
  0
LWPOLYLINE
  5
176
102
{ACAD_REACTORS
330
177
102
}
100
AcDbEntity
  8
DETAIL_1
 62
    36
  6
CONTINUOUS
370
    -3
100
AcDbPolyline
 90
        4
 70
     1
 43
0.0
 10
1275.05517724
 20
-30.50000002
 10
1275.05517724
 20
-2.2424501366913E-08
 10
1485.05517729
 20
-2.2424501366913E-08
 10
1485.05517729
 20
-30.50000002
  0
HATCH
  5
177
100
AcDbEntity
  8
DETAIL_1
 62
     9
  6
CONTINUOUS
100
AcDbHatch
 10
0.0
 20
0.0
 30
0.0
210
0.0
220
0.0
230
1.0
  2
ANSI31
 70
     0
 71
     1
 91
        1
 92
        7
 72
     0
 73
     1
 93
        4
 10
1275.05517724
 20
-30.50000002
 10
1275.05517724
 20
-2.2424501366913E-08
 10
1485.05517729
 20
-2.2424501366913E-08
 10
1485.05517729
 20
-30.50000002
 97
        1
330
176
 75
     0
 76
     2
 52
0.0
 41
6.2992521
 77
     0
 78
     1
 53
45.0
 43
0.0
 44
0.0
 45
14.14213562
 46
-14.14213562
 79
     0
 47
0.775229
 98
        1
 10
0.0
 20
0.0
  0
LWPOLYLINE
  5
178
102
{ACAD_REACTORS
330
179
102
}
100
AcDbEntity
  8
DETAIL_1
 62
    36
  6
CONTINUOUS
370
    -3
100
AcDbPolyline
 90
        9
 70
     1
 43
0.0
 38
2300.0
 39
-2300.0
 10
1001.55517719
 20
-7.50000002
 10
1011.55517719
 20
-7.50000002
 10
1011.55517719
 20
-16.50000002
 10
1001.55517719
 20
-16.50000002
 10
1001.55517719
 20
-27.50000002
 10
1004.55517719
 20
-30.50000002
 10
1032.05517719
 20
-30.50000002
 10
1032.05517719
 20
129.49999998
 10
1001.55517719
 20
129.49999996
  0
HATCH
  5
179
100
AcDbEntity
  8
DETAIL_1
 62
     9
  6
CONTINUOUS
100
AcDbHatch
 10
0.0
 20
0.0
 30
0.0
210
0.0
220
0.0
230
1.0
  2
ANSI31
 70
     0
 71
     1
 91
        1
 92
        7
 72
     0
 73
     1
 93
        9
 10
1001.55517719
 20
-7.50000002
 10
1011.55517719
 20
-7.50000002
 10
1011.55517719
 20
-16.50000002
 10
1001.55517719
 20
-16.50000002
 10
1001.55517719
 20
-27.50000002
 10
1004.55517719
 20
-30.50000002
 10
1032.05517719
 20
-30.50000002
 10
1032.05517719
 20
129.49999998
 10
1001.55517719
 20
129.49999996
 97
        1
330
178
 75
     0
 76
     2
 52
0.0
 41
6.2992521
 77
     0
 78
     1
 53
45.0
 43
0.0
 44
0.0
 45
14.14213562
 46
-14.14213562
 79
     0
 47
0.775229
 98
        1
 10
0.0
 20
0.0
  0
LWPOLYLINE
  5
17A
102
{ACAD_REACTORS
330
17B
102
}
100
AcDbEntity
  8
DETAIL_1
 62
    36
  6
CONTINUOUS
370
    -3
100
AcDbPolyline
 90
        9
 70
     1
 43
0.0
 38
2300.0
 39
-2300.0
 10
1515.55517729
 20
-7.00000002
 10
1498.55517719
 20
-7.00000002
 10
1498.55517719
 20
-17.00000002
 10
1515.55517729
 20
-17.00000002
 10
1515.55517729
 20
-27.50000002
 10
1512.55517729
 20
-30.50000002
 10
1485.05517729
 20
-30.50000002
 10
1485.05517729
 20
129.49999998
 10
1515.55517729
 20
129.49999996
  0
HATCH
  5
17B
100
AcDbEntity
  8
DETAIL_1
 62
     9
  6
CONTINUOUS
100
AcDbHatch
 10
0.0
 20
0.0
 30
0.0
210
0.0
220
0.0
230
1.0
  2
ANSI31
 70
     0
 71
     1
 91
        1
 92
        7
 72
     0
 73
     1
 93
        9
 10
1515.55517729
 20
-7.00000002
 10
1498.55517719
 20
-7.00000002
 10
1498.55517719
 20
-17.00000002
 10
1515.55517729
 20
-17.00000002
 10
1515.55517729
 20
-27.50000002
 10
1512.55517729
 20
-30.50000002
 10
1485.05517729
 20
-30.50000002
 10
1485.05517729
 20
129.49999998
 10
1515.55517729
 20
129.49999996
 97
        1
330
17A
 75
     0
 76
     2
 52
0.0
 41
6.2992521
 77
     0
 78
     1
 53
45.0
 43
0.0
 44
0.0
 45
14.14213562
 46
-14.14213562
 79
     0
 47
0.775229
 98
        1
 10
0.0
 20
0.0
  0
LWPOLYLINE
  5
17C
102
{ACAD_REACTORS
330
17D
102
}
100
AcDbEntity
  8
DETAIL_1
 62
    36
  6
CONTINUOUS
370
    -3
100
AcDbPolyline
 90
        4
 70
     1
 43
0.0
 10
1032.05517719
 20
-30.50000002
 10
1032.05517719
 20
-2.2424501366913E-08
 10
1242.05517724
 20
-2.2424501366913E-08
 10
1242.05517724
 20
-30.50000002
  0
HATCH
  5
17D
100
AcDbEntity
  8
DETAIL_1
 62
     9
  6
CONTINUOUS
100
AcDbHatch
 10
0.0
 20
0.0
 30
0.0
210
0.0
220
0.0
230
1.0
  2
ANSI31
 70
     0
 71
     1
 91
        1
 92
        7
 72
     0
 73
     1
 93
        4
 10
1032.05517719
 20
-30.50000002
 10
1032.05517719
 20
-2.2424501366913E-08
 10
1242.05517724
 20
-2.2424501366913E-08
 10
1242.05517724
 20
-30.50000002
 97
        1
330
17C
 75
     0
 76
     2
 52
0.0
 41
6.2992521
 77
     0
 78
     1
 53
45.0
 43
0.0
 44
0.0
 45
14.14213562
 46
-14.14213562
 79
     0
 47
0.775229
 98
        1
 10
0.0
 20
0.0
  0
3DFACE
  5
17E
102
{ACAD_REACTORS
330
17F
102
}
100
AcDbEntity
  8
DETAIL_1
 62
    36
  6
CONTINUOUS
370
    -3
100
AcDbFace
 70
     0
 10
1011.55517719
 20
-7.50000002
 30
2300.0
 11
981.55517719
 21
-7.50000002
 31
2300.0
 12
981.55517719
 22
-16.50000002
 32
2300.0
 13
1011.55517719
 23
-16.50000002
 33
2300.0
  0
HATCH
  5
17F
100
AcDbEntity
  8
DETAIL_1
 62
     9
  6
CONTINUOUS
100
AcDbHatch
 10
0.0
 20
0.0
 30
0.0
210
0.0
220
0.0
230
1.0
  2
ANSI31
 70
     0
 71
     1
 91
        1
 92
        7
 72
     0
 73
     1
 93
        4
 10
1011.55517719
 20
-7.50000002
 10
981.55517719
 20
-7.50000002
 10
981.55517719
 20
-16.50000002
 10
1011.55517719
 20
-16.50000002
 97
        1
330
17E
 75
     0
 76
     2
 52
0.0
 41
6.2992521
 77
     0
 78
     1
 53
45.0
 43
0.0
 44
0.0
 45
14.14213562
 46
-14.14213562
 79
     0
 47
0.775229
 98
        1
 10
0.0
 20
0.0
  0
LWPOLYLINE
  5
180
102
{ACAD_REACTORS
330
181
102
}
100
AcDbEntity
  8
DETAIL_1
 62
    36
  6
CONTINUOUS
370
    -3
100
AcDbPolyline
 90
        4
 70
     1
 43
0.0
 10
1032.05517719
 20
98.99999998
 10
1032.05517719
 20
129.49999998
 10
1242.05517724
 20
129.49999998
 10
1242.05517724
 20
98.99999998
  0
HATCH
  5
181
100
AcDbEntity
  8
DETAIL_1
 62
     9
  6
CONTINUOUS
100
AcDbHatch
 10
0.0
 20
0.0
 30
0.0
210
0.0
220
0.0
230
1.0
  2
ANSI31
 70
     0
 71
     1
 91
        1
 92
        7
 72
     0
 73
     1
 93
        4
 10
1032.05517719
 20
98.99999998
 10
1032.05517719
 20
129.49999998
 10
1242.05517724
 20
129.49999998
 10
1242.05517724
 20
98.99999998
 97
        1
330
180
 75
     0
 76
     2
 52
0.0
 41
6.2992521
 77
     0
 78
     1
 53
45.0
 43
0.0
 44
0.0
 45
14.14213562
 46
-14.14213562
 79
     0
 47
0.775229
 98
        1
 10
0.0
 20
0.0
  0
LWPOLYLINE
  5
182
102
{ACAD_REACTORS
330
183
102
}
100
AcDbEntity
  8
DETAIL_1
 62
    36
  6
CONTINUOUS
370
    -3
100
AcDbPolyline
 90
        4
 70
     1
 43
0.0
 10
1275.05517724
 20
98.99999998
 10
1275.05517724
 20
129.49999998
 10
1485.05517729
 20
129.49999998
 10
1485.05517729
 20
98.99999998
  0
HATCH
  5
183
100
AcDbEntity
  8
DETAIL_1
 62
     9
  6
CONTINUOUS
100
AcDbHatch
 10
0.0
 20
0.0
 30
0.0
210
0.0
220
0.0
230
1.0
  2
ANSI31
 70
     0
 71
     1
 91
        1
 92
        7
 72
     0
 73
     1
 93
        4
 10
1275.05517724
 20
98.99999998
 10
1275.05517724
 20
129.49999998
 10
1485.05517729
 20
129.49999998
 10
1485.05517729
 20
98.99999998
 97
        1
330
182
 75
     0
 76
     2
 52
0.0
 41
6.2992521
 77
     0
 78
     1
 53
45.0
 43
0.0
 44
0.0
 45
14.14213562
 46
-14.14213562
 79
     0
 47
0.775229
 98
        1
 10
0.0
 20
0.0
  0
LINE
  5
184
100
AcDbEntity
  8
DETAIL_1
 62
   106
  6
DASHDOT
370
    -2
100
AcDbLine
 10
1015.55517719
 20
179.87487359
 30
0.0
 11
1015.55517719
 21
-122.6713759
 31
0.0
  0
LINE
  5
185
100
AcDbEntity
  8
DETAIL_1
 62
   106
  6
DASHDOT
370
    -2
100
AcDbLine
 10
1258.55517724
 20
179.87487359
 30
0.0
 11
1258.55517724
 21
-122.6713759
 31
0.0
  0
LWPOLYLINE
  5
186
102
{ACAD_REACTORS
330
187
102
}
100
AcDbEntity
  8
DETAIL_1
 62
    28
  6
CONTINUOUS
370
    -3
100
AcDbPolyline
 90
        4
 70
     1
 43
0.0
 10
-832.31499793
 20
893.58127988
 10
1877.68500207
 20
893.58127988
 10
1877.68500207
 20
957.01379199
 10
-832.31499793
 20
957.01379199
  0
HATCH
  5
187
100
AcDbEntity
  8
DETAIL_1
 62
    28
  6
CONTINUOUS
100
AcDbHatch
 10
0.0
 20
0.0
 30
0.0
210
0.0
220
0.0
230
1.0
  2
SOLID
 70
     1
 71
     1
 91
        1
 92
        7
 72
     0
 73
     1
 93
        4
 10
-832.31499793
 20
893.58127988
 10
1877.68500207
 20
893.58127988
 10
1877.68500207
 20
957.01379199
 10
-832.31499793
 20
957.01379199
 97
        1
330
186
 75
     0
 76
     2
 47
0.775229
 98
        1
 10
0.0
 20
0.0
  0
LINE
  5
188
100
AcDbEntity
  8
DETAIL_1
 62
    42
370
    -2
100
AcDbLine
 10
-594.26684616
 20
767.52063244
 30
0.0
 11
-594.76430184
 21
764.74112523
 31
0.0
  0
LWPOLYLINE
  5
189
100
AcDbEntity
  8
DETAIL_1
 62
    42
370
    -3
100
AcDbPolyline
 90
      217
 70
     0
 43
0.0
 10
-606.59695439
 20
811.91849436
 10
-606.61840573
 20
811.78964854
 10
-606.68030817
 20
811.41783634
 10
-606.77898434
 20
810.82514559
 10
-606.91075686
 20
810.03366415
 10
-607.07194837
 20
809.06547988
 10
-607.25888148
 20
807.94268064
 10
-607.46787883
 20
806.68735427
 10
-607.69526304
 20
805.32158863
 10
-607.93735674
 20
803.86747157
 10
-608.19048257
 20
802.34709096
 10
-608.45096313
 20
800.78253463
 10
-608.71512107
 20
799.19589045
 10
-608.97927901
 20
797.60924627
 10
-609.23975958
 20
796.04468994
 10
-609.4928854
 20
794.52430933
 10
-609.7349791
 20
793.07019227
 10
-609.96236332
 20
791.70442663
 10
-610.17136067
 20
790.44910026
 10
-610.35829378
 20
789.32630102
 10
-610.51948528
 20
788.35811675
 10
-610.6512578
 20
787.56663531
 10
-610.74993397
 20
786.97394456
 10
-610.81183641
 20
786.60213235
 10
-610.83328775
 20
786.47328654
 10
-610.83328775
 20
786.47328654
 10
-610.83328775
 20
786.47328654
 10
-610.83328775
 20
786.47328654
 10
-610.83328775
 20
786.47328654
 10
-610.83328775
 20
786.47328654
 10
-610.83328775
 20
786.47328654
 10
-610.83328775
 20
786.47328654
 10
-610.83328775
 20
786.47328654
 10
-610.83328775
 20
786.47328654
 10
-610.83328775
 20
786.47328654
 10
-610.83328775
 20
786.47328654
 10
-610.83328775
 20
786.47328654
 10
-610.83328775
 20
786.47328654
 10
-610.83328775
 20
786.47328654
 10
-610.83328775
 20
786.47328654
 10
-610.83328775
 20
786.47328654
 10
-610.83328775
 20
786.47328654
 10
-610.83328775
 20
786.47328654
 10
-610.83328775
 20
786.47328654
 10
-610.83328775
 20
786.47328654
 10
-610.83328775
 20
786.47328654
 10
-610.83328775
 20
786.47328654
 10
-610.83328775
 20
786.47328654
 10
-610.83328775
 20
786.47328654
 10
-611.35764299
 20
785.92254701
 10
-611.8702777
 20
785.39651573
 10
-612.37194152
 20
784.89507959
 10
-612.8633841
 20
784.41812543
 10
-613.34535508
 20
783.96554015
 10
-613.81860411
 20
783.53721059
 10
-614.28388083
 20
783.13302363
 10
-614.7419349
 20
782.75286614
 10
-615.19351595
 20
782.39662498
 10
-615.63937362
 20
782.06418703
 10
-616.08025757
 20
781.75543915
 10
-616.51691745
 20
781.47026821
 10
-616.95010288
 20
781.20856107
 10
-617.38056353
 20
780.97020461
 10
-617.80904903
 20
780.75508569
 10
-618.23630904
 20
780.56309119
 10
-618.66309319
 20
780.39410796
 10
-619.09015113
 20
780.24802288
 10
-619.5182325
 20
780.12472282
 10
-619.94808696
 20
780.02409464
 10
-620.38046415
 20
779.94602521
 10
-620.8161137
 20
779.8904014
 10
-621.25578528
 20
779.85711008
 10
-621.70022851
 20
779.84603811
 10
-621.70022851
 20
779.84603811
 10
-621.70022851
 20
779.84603811
 10
-621.70022851
 20
779.84603811
 10
-621.70022851
 20
779.84603811
 10
-621.70022851
 20
779.84603811
 10
-621.70022851
 20
779.84603811
 10
-621.70022851
 20
779.84603811
 10
-621.70022851
 20
779.84603811
 10
-621.70022851
 20
779.84603811
 10
-621.70022851
 20
779.84603811
 10
-621.70022851
 20
779.84603811
 10
-621.70022851
 20
779.84603811
 10
-621.70022851
 20
779.84603811
 10
-621.70022851
 20
779.84603811
 10
-621.70022851
 20
779.84603811
 10
-621.70022851
 20
779.84603811
 10
-621.70022851
 20
779.84603811
 10
-621.70022851
 20
779.84603811
 10
-621.70022851
 20
779.84603811
 10
-621.70022851
 20
779.84603811
 10
-621.70022851
 20
779.84603811
 10
-621.70022851
 20
779.84603811
 10
-621.70022851
 20
779.84603811
 10
-621.70022851
 20
779.84603811
 10
-622.20695708
 20
779.85994353
 10
-622.6992135
 20
779.90208237
 10
-623.17636738
 20
779.97308854
 10
-623.63778834
 20
780.07359591
 10
-624.08284597
 20
780.20423837
 10
-624.5109099
 20
780.36564982
 10
-624.92134974
 20
780.55846415
 10
-625.31353508
 20
780.78331523
 10
-625.68683555
 20
781.04083697
 10
-626.04062075
 20
781.33166325
 10
-626.37426029
 20
781.65642796
 10
-626.68712379
 20
782.01576498
 10
-626.97858085
 20
782.41030822
 10
-627.24800108
 20
782.84069155
 10
-627.49475409
 20
783.30754887
 10
-627.71820949
 20
783.81151406
 10
-627.91773689
 20
784.35322101
 10
-628.09270591
 20
784.93330362
 10
-628.24248615
 20
785.55239577
 10
-628.36644722
 20
786.21113135
 10
-628.46395873
 20
786.91014425
 10
-628.53439029
 20
787.65006836
 10
-628.57711151
 20
788.43153756
 10
-628.59149201
 20
789.25518575
 10
-628.59149201
 20
789.25518575
 10
-628.59149201
 20
789.25518575
 10
-628.59149201
 20
789.25518575
 10
-628.59149201
 20
789.25518575
 10
-628.59149201
 20
789.25518575
 10
-628.59149201
 20
789.25518575
 10
-628.59149201
 20
789.25518575
 10
-628.59149201
 20
789.25518575
 10
-628.59149201
 20
789.25518575
 10
-628.59149201
 20
789.25518575
 10
-628.59149201
 20
789.25518575
 10
-628.59149201
 20
789.25518575
 10
-628.59149201
 20
789.25518575
 10
-628.59149201
 20
789.25518575
 10
-628.59149201
 20
789.25518575
 10
-628.59149201
 20
789.25518575
 10
-628.59149201
 20
789.25518575
 10
-628.59149201
 20
789.25518575
 10
-628.59149201
 20
789.25518575
 10
-628.59149201
 20
789.25518575
 10
-628.59149201
 20
789.25518575
 10
-628.59149201
 20
789.25518575
 10
-628.59149201
 20
789.25518575
 10
-628.59149201
 20
789.25518575
 10
-628.55197308
 20
791.07887366
 10
-628.43536754
 20
792.83784716
 10
-628.24460222
 20
794.53096035
 10
-627.982604
 20
796.15706733
 10
-627.65229971
 20
797.7150222
 10
-627.25661621
 20
799.20367906
 10
-626.79848036
 20
800.62189202
 10
-626.28081901
 20
801.96851517
 10
-625.706559
 20
803.24240262
 10
-625.0786272
 20
804.44240847
 10
-624.39995046
 20
805.56738682
 10
-623.67345562
 20
806.61619177
 10
-622.90206955
 20
807.58767742
 10
-622.08871909
 20
808.48069788
 10
-621.23633109
 20
809.29410724
 10
-620.34783242
 20
810.0267596
 10
-619.42614992
 20
810.67750907
 10
-618.47421044
 20
811.24520975
 10
-617.49494084
 20
811.72871574
 10
-616.49126798
 20
812.12688115
 10
-615.46611869
 20
812.43856006
 10
-614.42241984
 20
812.66260659
 10
-613.36309829
 20
812.79787483
 10
-612.29108087
 20
812.84321889
 10
-612.05890337
 20
812.84250149
 10
-611.82670983
 20
812.84019484
 10
-611.59444223
 20
812.8360673
 10
-611.36204255
 20
812.8298872
 10
-611.12945276
 20
812.82142288
 10
-610.89661484
 20
812.81044268
 10
-610.66347076
 20
812.79671496
 10
-610.4299625
 20
812.78000804
 10
-610.19603204
 20
812.76009028
 10
-609.96162135
 20
812.73673
 10
-609.72667241
 20
812.70969556
 10
-609.49112719
 20
812.6787553
 10
-609.25492767
 20
812.64367756
 10
-609.01801583
 20
812.60423068
 10
-608.78033364
 20
812.56018299
 10
-608.54182309
 20
812.51130286
 10
-608.30242613
 20
812.45735861
 10
-608.06208476
 20
812.39811858
 10
-607.82074094
 20
812.33335113
 10
-607.57833666
 20
812.26282458
 10
-607.33481389
 20
812.18630729
 10
-607.0901146
 20
812.1035676
 10
-606.84418078
 20
812.01437384
 10
-606.59695439
 20
811.91849436
 10
-606.59695439
 20
811.91849436
 10
-606.59695439
 20
811.91849436
 10
-606.59695439
 20
811.91849436
 10
-606.59695439
 20
811.91849436
 10
-606.59695439
 20
811.91849436
 10
-606.59695439
 20
811.91849436
 10
-606.59695439
 20
811.91849436
 10
-606.59695439
 20
811.91849436
 10
-606.59695439
 20
811.91849436
 10
-606.59695439
 20
811.91849436
 10
-606.59695439
 20
811.91849436
 10
-606.59695439
 20
811.91849436
 10
-606.59695439
 20
811.91849436
 10
-606.59695439
 20
811.91849436
 10
-606.59695439
 20
811.91849436
 10
-606.59695439
 20
811.91849436
 10
-606.59695439
 20
811.91849436
 10
-606.59695439
 20
811.91849436
 10
-606.59695439
 20
811.91849436
 10
-606.59695439
 20
811.91849436
 10
-606.59695439
 20
811.91849436
 10
-606.59695439
 20
811.91849436
 10
-606.59695439
 20
811.91849436
 10
-606.59695439
 20
811.91849436
  0
LWPOLYLINE
  5
18A
100
AcDbEntity
  8
DETAIL_1
 62
    42
370
    -3
100
AcDbPolyline
 90
      504
 70
     0
 43
0.0
 10
-594.76430184
 20
764.74112523
 10
-595.35947061
 20
762.13098651
 10
-596.04930344
 20
759.68567411
 10
-596.83075131
 20
757.40064581
 10
-597.7007652
 20
755.27135945
 10
-598.65629609
 20
753.29327281
 10
-599.69429494
 20
751.46184372
 10
-600.81171274
 20
749.77252998
 10
-602.00550046
 20
748.2207894
 10
-603.27260908
 20
746.80207978
 10
-604.60998957
 20
745.51185895
 10
-606.01459291
 20
744.34558471
 10
-607.48337009
 20
743.29871486
 10
-609.01327206
 20
742.36670722
 10
-610.60124982
 20
741.54501959
 10
-612.24425433
 20
740.82910979
 10
-613.93923658
 20
740.21443562
 10
-615.68314754
 20
739.69645489
 10
-617.47293818
 20
739.27062541
 10
-619.30555948
 20
738.932405
 10
-621.17796242
 20
738.67725145
 10
-623.08709798
 20
738.50062258
 10
-625.02991713
 20
738.3979762
 10
-627.00337084
 20
738.36477011
 10
-627.00337084
 20
738.36477011
 10
-627.00337084
 20
738.36477011
 10
-627.00337084
 20
738.36477011
 10
-627.00337084
 20
738.36477011
 10
-627.00337084
 20
738.36477011
 10
-627.00337084
 20
738.36477011
 10
-627.00337084
 20
738.36477011
 10
-627.00337084
 20
738.36477011
 10
-627.00337084
 20
738.36477011
 10
-627.00337084
 20
738.36477011
 10
-627.00337084
 20
738.36477011
 10
-627.00337084
 20
738.36477011
 10
-627.00337084
 20
738.36477011
 10
-627.00337084
 20
738.36477011
 10
-627.00337084
 20
738.36477011
 10
-627.00337084
 20
738.36477011
 10
-627.00337084
 20
738.36477011
 10
-627.00337084
 20
738.36477011
 10
-627.00337084
 20
738.36477011
 10
-627.00337084
 20
738.36477011
 10
-627.00337084
 20
738.36477011
 10
-627.00337084
 20
738.36477011
 10
-627.00337084
 20
738.36477011
 10
-627.00337084
 20
738.36477011
 10
-628.33881755
 20
738.3777663
 10
-629.66113278
 20
738.41625566
 10
-630.96962725
 20
738.47948945
 10
-632.26361166
 20
738.56671887
 10
-633.54239674
 20
738.67719517
 10
-634.80529318
 20
738.81016958
 10
-636.05161171
 20
738.96489331
 10
-637.28066303
 20
739.14061761
 10
-638.49175785
 20
739.3365937
 10
-639.68420689
 20
739.55207282
 10
-640.85732086
 20
739.78630618
 10
-642.01041046
 20
740.03854502
 10
-643.14278642
 20
740.30804058
 10
-644.25375944
 20
740.59404407
 10
-645.34264023
 20
740.89580673
 10
-646.4087395
 20
741.21257979
 10
-647.45136797
 20
741.54361448
 10
-648.46983634
 20
741.88816203
 10
-649.46345533
 20
742.24547366
 10
-650.43153565
 20
742.61480061
 10
-651.37338801
 20
742.99539411
 10
-652.28832312
 20
743.38650538
 10
-653.1756517
 20
743.78738566
 10
-654.03468445
 20
744.19728617
 10
-654.03468445
 20
744.19728617
 10
-654.03468445
 20
744.19728617
 10
-654.03468445
 20
744.19728617
 10
-654.03468445
 20
744.19728617
 10
-654.03468445
 20
744.19728617
 10
-654.03468445
 20
744.19728617
 10
-654.03468445
 20
744.19728617
 10
-654.03468445
 20
744.19728617
 10
-654.03468445
 20
744.19728617
 10
-654.03468445
 20
744.19728617
 10
-654.03468445
 20
744.19728617
 10
-654.03468445
 20
744.19728617
 10
-654.03468445
 20
744.19728617
 10
-654.03468445
 20
744.19728617
 10
-654.03468445
 20
744.19728617
 10
-654.03468445
 20
744.19728617
 10
-654.03468445
 20
744.19728617
 10
-654.03468445
 20
744.19728617
 10
-654.03468445
 20
744.19728617
 10
-654.03468445
 20
744.19728617
 10
-654.03468445
 20
744.19728617
 10
-654.03468445
 20
744.19728617
 10
-654.03468445
 20
744.19728617
 10
-654.03468445
 20
744.19728617
 10
-654.00985008
 20
744.27311424
 10
-653.93818519
 20
744.4919324
 10
-653.82394711
 20
744.84074154
 10
-653.67139315
 20
745.30654257
 10
-653.48478062
 20
745.87633639
 10
-653.26836686
 20
746.53712389
 10
-653.02640918
 20
747.27590599
 10
-652.76316489
 20
748.07968358
 10
-652.48289133
 20
748.93545757
 10
-652.18984581
 20
749.83022884
 10
-651.88828565
 20
750.75099832
 10
-651.58246817
 20
751.68476689
 10
-651.27665069
 20
752.61853547
 10
-650.97509053
 20
753.53930494
 10
-650.682045
 20
754.43407622
 10
-650.40177144
 20
755.28985021
 10
-650.13852716
 20
756.0936278
 10
-649.89656948
 20
756.83240989
 10
-649.68015571
 20
757.4931974
 10
-649.49354319
 20
758.06299122
 10
-649.34098923
 20
758.52879225
 10
-649.22675114
 20
758.87760139
 10
-649.15508626
 20
759.09641955
 10
-649.13025189
 20
759.17224762
 10
-649.13025189
 20
759.17224762
 10
-649.13025189
 20
759.17224762
 10
-649.13025189
 20
759.17224762
 10
-649.13025189
 20
759.17224762
 10
-649.13025189
 20
759.17224762
 10
-649.13025189
 20
759.17224762
 10
-649.13025189
 20
759.17224762
 10
-649.13025189
 20
759.17224762
 10
-649.13025189
 20
759.17224762
 10
-649.13025189
 20
759.17224762
 10
-649.13025189
 20
759.17224762
 10
-649.13025189
 20
759.17224762
 10
-649.13025189
 20
759.17224762
 10
-649.13025189
 20
759.17224762
 10
-649.13025189
 20
759.17224762
 10
-649.13025189
 20
759.17224762
 10
-649.13025189
 20
759.17224762
 10
-649.13025189
 20
759.17224762
 10
-649.13025189
 20
759.17224762
 10
-649.13025189
 20
759.17224762
 10
-649.13025189
 20
759.17224762
 10
-649.13025189
 20
759.17224762
 10
-649.13025189
 20
759.17224762
 10
-649.13025189
 20
759.17224762
 10
-648.31845503
 20
758.76435413
 10
-647.50492138
 20
758.36926555
 10
-646.68936623
 20
757.98738659
 10
-645.87150485
 20
757.61912195
 10
-645.05105252
 20
757.26487635
 10
-644.2277245
 20
756.92505449
 10
-643.40123608
 20
756.60006109
 10
-642.57130252
 20
756.29030085
 10
-641.73763911
 20
755.99617849
 10
-640.89996112
 20
755.71809871
 10
-640.05798382
 20
755.45646622
 10
-639.21142249
 20
755.21168572
 10
-638.3599924
 20
754.98416194
 10
-637.50340883
 20
754.77429958
 10
-636.64138705
 20
754.58250335
 10
-635.77364233
 20
754.40917795
 10
-634.89988996
 20
754.25472811
 10
-634.01984521
 20
754.11955851
 10
-633.13322334
 20
754.00407389
 10
-632.23973965
 20
753.90867894
 10
-631.33910939
 20
753.83377837
 10
-630.43104785
 20
753.7797769
 10
-629.5152703
 20
753.74707922
 10
-628.59149201
 20
753.73609007
 10
-628.59149201
 20
753.73609007
 10
-628.59149201
 20
753.73609007
 10
-628.59149201
 20
753.73609007
 10
-628.59149201
 20
753.73609007
 10
-628.59149201
 20
753.73609007
 10
-628.59149201
 20
753.73609007
 10
-628.59149201
 20
753.73609007
 10
-628.59149201
 20
753.73609007
 10
-628.59149201
 20
753.73609007
 10
-628.59149201
 20
753.73609007
 10
-628.59149201
 20
753.73609007
 10
-628.59149201
 20
753.73609007
 10
-628.59149201
 20
753.73609007
 10
-628.59149201
 20
753.73609007
 10
-628.59149201
 20
753.73609007
 10
-628.59149201
 20
753.73609007
 10
-628.59149201
 20
753.73609007
 10
-628.59149201
 20
753.73609007
 10
-628.59149201
 20
753.73609007
 10
-628.59149201
 20
753.73609007
 10
-628.59149201
 20
753.73609007
 10
-628.59149201
 20
753.73609007
 10
-628.59149201
 20
753.73609007
 10
-628.59149201
 20
753.73609007
 10
-627.56705281
 20
753.75820815
 10
-626.58097644
 20
753.82463781
 10
-625.63297656
 20
753.93549219
 10
-624.72276685
 20
754.09088441
 10
-623.85006097
 20
754.29092762
 10
-623.0145726
 20
754.53573494
 10
-622.21601541
 20
754.82541949
 10
-621.45410307
 20
755.16009443
 10
-620.72854925
 20
755.53987287
 10
-620.03906763
 20
755.96486795
 10
-619.38537186
 20
756.4351928
 10
-618.76717563
 20
756.95096055
 10
-618.18419261
 20
757.51228434
 10
-617.63613646
 20
758.1192773
 10
-617.12272086
 20
758.77205255
 10
-616.64365948
 20
759.47072324
 10
-616.19866599
 20
760.21540248
 10
-615.78745406
 20
761.00620343
 10
-615.40973736
 20
761.8432392
 10
-615.06522957
 20
762.72662292
 10
-614.75364435
 20
763.65646774
 10
-614.47469538
 20
764.63288678
 10
-614.22809632
 20
765.65599318
 10
-614.01356085
 20
766.72590006
 10
-614.01356085
 20
766.72590006
 10
-614.01356085
 20
766.72590006
 10
-614.01356085
 20
766.72590006
 10
-614.01356085
 20
766.72590006
 10
-614.01356085
 20
766.72590006
 10
-614.01356085
 20
766.72590006
 10
-614.01356085
 20
766.72590006
 10
-614.01356085
 20
766.72590006
 10
-614.01356085
 20
766.72590006
 10
-614.01356085
 20
766.72590006
 10
-614.01356085
 20
766.72590006
 10
-614.01356085
 20
766.72590006
 10
-614.01356085
 20
766.72590006
 10
-614.01356085
 20
766.72590006
 10
-614.01356085
 20
766.72590006
 10
-614.01356085
 20
766.72590006
 10
-614.01356085
 20
766.72590006
 10
-614.01356085
 20
766.72590006
 10
-614.01356085
 20
766.72590006
 10
-614.01356085
 20
766.72590006
 10
-614.01356085
 20
766.72590006
 10
-614.01356085
 20
766.72590006
 10
-614.01356085
 20
766.72590006
 10
-614.01356085
 20
766.72590006
 10
-614.00751936
 20
766.75542712
 10
-613.99008538
 20
766.84063378
 10
-613.96229456
 20
766.97645826
 10
-613.9251826
 20
767.15783876
 10
-613.87978519
 20
767.37971353
 10
-613.82713799
 20
767.63702076
 10
-613.7682767
 20
767.92469869
 10
-613.704237
 20
768.23768552
 10
-613.63605457
 20
768.57091948
 10
-613.56476509
 20
768.91933878
 10
-613.49140425
 20
769.27788165
 10
-613.41700772
 20
769.6414863
 10
-613.34261119
 20
770.00509095
 10
-613.26925035
 20
770.36363381
 10
-613.19796087
 20
770.71205312
 10
-613.12977843
 20
771.04528707
 10
-613.06573873
 20
771.35827391
 10
-613.00687744
 20
771.64595183
 10
-612.95423025
 20
771.90325907
 10
-612.90883283
 20
772.12513383
 10
-612.87172087
 20
772.30651434
 10
-612.84393006
 20
772.44233881
 10
-612.82649607
 20
772.52754547
 10
-612.82045459
 20
772.55707253
 10
-612.82045459
 20
772.55707253
 10
-612.82045459
 20
772.55707253
 10
-612.82045459
 20
772.55707253
 10
-612.82045459
 20
772.55707253
 10
-612.82045459
 20
772.55707253
 10
-612.82045459
 20
772.55707253
 10
-612.82045459
 20
772.55707253
 10
-612.82045459
 20
772.55707253
 10
-612.82045459
 20
772.55707253
 10
-612.82045459
 20
772.55707253
 10
-612.82045459
 20
772.55707253
 10
-612.82045459
 20
772.55707253
 10
-612.82045459
 20
772.55707253
 10
-612.82045459
 20
772.55707253
 10
-612.82045459
 20
772.55707253
 10
-612.82045459
 20
772.55707253
 10
-612.82045459
 20
772.55707253
 10
-612.82045459
 20
772.55707253
 10
-612.82045459
 20
772.55707253
 10
-612.82045459
 20
772.55707253
 10
-612.82045459
 20
772.55707253
 10
-612.82045459
 20
772.55707253
 10
-612.82045459
 20
772.55707253
 10
-612.82045459
 20
772.55707253
 10
-613.45125274
 20
771.93258304
 10
-614.08542298
 20
771.31914462
 10
-614.72353827
 20
770.71813731
 10
-615.36617154
 20
770.13094114
 10
-616.01389575
 20
769.55893615
 10
-616.66728385
 20
769.00350237
 10
-617.32690879
 20
768.46601983
 10
-617.99334352
 20
767.94786858
 10
-618.66716098
 20
767.45042865
 10
-619.34893413
 20
766.97508007
 10
-620.03923592
 20
766.52320287
 10
-620.73863929
 20
766.0961771
 10
-621.44771719
 20
765.69538279
 10
-622.16704258
 20
765.32219998
 10
-622.8971884
 20
764.97800869
 10
-623.6387276
 20
764.66418897
 10
-624.39223314
 20
764.38212084
 10
-625.15827795
 20
764.13318436
 10
-625.937435
 20
763.91875954
 10
-626.73027723
 20
763.74022643
 10
-627.53737758
 20
763.59896506
 10
-628.35930902
 20
763.49635546
 10
-629.19664448
 20
763.43377768
 10
-630.04995692
 20
763.41261175
 10
-630.04995692
 20
763.41261175
 10
-630.04995692
 20
763.41261175
 10
-630.04995692
 20
763.41261175
 10
-630.04995692
 20
763.41261175
 10
-630.04995692
 20
763.41261175
 10
-630.04995692
 20
763.41261175
 10
-630.04995692
 20
763.41261175
 10
-630.04995692
 20
763.41261175
 10
-630.04995692
 20
763.41261175
 10
-630.04995692
 20
763.41261175
 10
-630.04995692
 20
763.41261175
 10
-630.04995692
 20
763.41261175
 10
-630.04995692
 20
763.41261175
 10
-630.04995692
 20
763.41261175
 10
-630.04995692
 20
763.41261175
 10
-630.04995692
 20
763.41261175
 10
-630.04995692
 20
763.41261175
 10
-630.04995692
 20
763.41261175
 10
-630.04995692
 20
763.41261175
 10
-630.04995692
 20
763.41261175
 10
-630.04995692
 20
763.41261175
 10
-630.04995692
 20
763.41261175
 10
-630.04995692
 20
763.41261175
 10
-630.04995692
 20
763.41261175
 10
-631.40457359
 20
763.45393544
 10
-632.71772754
 20
763.57756207
 10
-633.98798026
 20
763.78297496
 10
-635.21389326
 20
764.06965744
 10
-636.39402804
 20
764.43709283
 10
-637.52694611
 20
764.88476446
 10
-638.61120897
 20
765.41215565
 10
-639.64537813
 20
766.01874973
 10
-640.62801508
 20
766.70403002
 10
-641.55768133
 20
767.46747984
 10
-642.43293839
 20
768.30858253
 10
-643.25234775
 20
769.22682141
 10
-644.01447093
 20
770.2216798
 10
-644.71786942
 20
771.29264103
 10
-645.36110472
 20
772.43918842
 10
-645.94273835
 20
773.66080529
 10
-646.4613318
 20
774.95697498
 10
-646.91544659
 20
776.32718081
 10
-647.3036442
 20
777.7709061
 10
-647.62448615
 20
779.28763418
 10
-647.87653393
 20
780.87684837
 10
-648.05834906
 20
782.538032
 10
-648.16849304
 20
784.27066839
 10
-648.20552736
 20
786.07424087
 10
-648.20552736
 20
786.07424087
 10
-648.20552736
 20
786.07424087
 10
-648.20552736
 20
786.07424087
 10
-648.20552736
 20
786.07424087
 10
-648.20552736
 20
786.07424087
 10
-648.20552736
 20
786.07424087
 10
-648.20552736
 20
786.07424087
 10
-648.20552736
 20
786.07424087
 10
-648.20552736
 20
786.07424087
 10
-648.20552736
 20
786.07424087
 10
-648.20552736
 20
786.07424087
 10
-648.20552736
 20
786.07424087
 10
-648.20552736
 20
786.07424087
 10
-648.20552736
 20
786.07424087
 10
-648.20552736
 20
786.07424087
 10
-648.20552736
 20
786.07424087
 10
-648.20552736
 20
786.07424087
 10
-648.20552736
 20
786.07424087
 10
-648.20552736
 20
786.07424087
 10
-648.20552736
 20
786.07424087
 10
-648.20552736
 20
786.07424087
 10
-648.20552736
 20
786.07424087
 10
-648.20552736
 20
786.07424087
 10
-648.20552736
 20
786.07424087
 10
-648.1141883
 20
789.39138425
 10
-647.84481244
 20
792.58289062
 10
-647.40436177
 20
795.64738039
 10
-646.79979829
 20
798.58347396
 10
-646.03808398
 20
801.38979173
 10
-645.12618083
 20
804.0649541
 10
-644.07105084
 20
806.60758147
 10
-642.879656
 20
809.01629425
 10
-641.55895829
 20
811.28971283
 10
-640.11591972
 20
813.42645762
 10
-638.55750226
 20
815.42514903
 10
-636.89066791
 20
817.28440745
 10
-635.12237867
 20
819.00285328
 10
-633.25959651
 20
820.57910694
 10
-631.30928344
 20
822.01178881
 10
-629.27840144
 20
823.29951931
 10
-627.1739125
 20
824.44091882
 10
-625.00277862
 20
825.43460777
 10
-622.77196179
 20
826.27920654
 10
-620.48842399
 20
826.97333555
 10
-618.15912722
 20
827.51561519
 10
-615.79103347
 20
827.90466586
 10
-613.39110472
 20
828.13910796
 10
-610.96630298
 20
828.21756191
 10
-610.96630298
 20
828.21756191
 10
-610.96630298
 20
828.21756191
 10
-610.96630298
 20
828.21756191
 10
-610.96630298
 20
828.21756191
 10
-610.96630298
 20
828.21756191
 10
-610.96630298
 20
828.21756191
 10
-610.96630298
 20
828.21756191
 10
-610.96630298
 20
828.21756191
 10
-610.96630298
 20
828.21756191
 10
-610.96630298
 20
828.21756191
 10
-610.96630298
 20
828.21756191
 10
-610.96630298
 20
828.21756191
 10
-610.96630298
 20
828.21756191
 10
-610.96630298
 20
828.21756191
 10
-610.96630298
 20
828.21756191
 10
-610.96630298
 20
828.21756191
 10
-610.96630298
 20
828.21756191
 10
-610.96630298
 20
828.21756191
 10
-610.96630298
 20
828.21756191
 10
-610.96630298
 20
828.21756191
 10
-610.96630298
 20
828.21756191
 10
-610.96630298
 20
828.21756191
 10
-610.96630298
 20
828.21756191
 10
-610.96630298
 20
828.21756191
 10
-609.88958694
 20
828.20796678
 10
-608.81299424
 20
828.17945004
 10
-607.73670419
 20
828.13241464
 10
-606.66089612
 20
828.06726354
 10
-605.58574935
 20
827.98439971
 10
-604.5114432
 20
827.88422609
 10
-603.43815699
 20
827.76714567
 10
-602.36607003
 20
827.63356138
 10
-601.29536165
 20
827.4838762
 10
-600.22621117
 20
827.31849307
 10
-599.1587979
 20
827.13781498
 10
-598.09330117
 20
826.94224486
 10
-597.0299003
 20
826.73218568
 10
-595.96877461
 20
826.50804041
 10
-594.91010341
 20
826.27021199
 10
-593.85406603
 20
826.0191034
 10
-592.80084179
 20
825.75511759
 10
-591.75061001
 20
825.47865752
 10
-590.70355001
 20
825.19012615
 10
-589.6598411
 20
824.88992644
 10
-588.61966261
 20
824.57846135
 10
-587.58319386
 20
824.25613384
 10
-586.55061416
 20
823.92334686
 10
-585.52210285
 20
823.58050339
 10
-585.52210285
 20
823.58050339
 10
-585.52210285
 20
823.58050339
 10
-585.52210285
 20
823.58050339
 10
-585.52210285
 20
823.58050339
 10
-585.52210285
 20
823.58050339
 10
-585.52210285
 20
823.58050339
 10
-585.52210285
 20
823.58050339
 10
-585.52210285
 20
823.58050339
 10
-585.52210285
 20
823.58050339
 10
-585.52210285
 20
823.58050339
 10
-585.52210285
 20
823.58050339
 10
-585.52210285
 20
823.58050339
 10
-585.52210285
 20
823.58050339
 10
-585.52210285
 20
823.58050339
 10
-585.52210285
 20
823.58050339
 10
-585.52210285
 20
823.58050339
 10
-585.52210285
 20
823.58050339
 10
-585.52210285
 20
823.58050339
 10
-585.52210285
 20
823.58050339
 10
-585.52210285
 20
823.58050339
 10
-585.52210285
 20
823.58050339
 10
-585.52210285
 20
823.58050339
 10
-585.52210285
 20
823.58050339
 10
-585.52210285
 20
823.58050339
 10
-585.56638323
 20
823.29663541
 10
-585.69416377
 20
822.47747352
 10
-585.89785354
 20
821.17168081
 10
-586.16986161
 20
819.42792036
 10
-586.50259707
 20
817.29485525
 10
-586.88846899
 20
814.82114856
 10
-587.31988645
 20
812.05546337
 10
-587.78925852
 20
809.04646278
 10
-588.28899429
 20
805.84280985
 10
-588.81150282
 20
802.49316768
 10
-589.3491932
 20
799.04619934
 10
-589.89447451
 20
795.55056792
 10
-590.43975581
 20
792.0549365
 10
-590.97744619
 20
788.60796816
 10
-591.49995472
 20
785.25832598
 10
-591.99969049
 20
782.05467306
 10
-592.46906256
 20
779.04567246
 10
-592.90048002
 20
776.27998728
 10
-593.28635194
 20
773.80628059
 10
-593.6190874
 20
771.67321547
 10
-593.89109547
 20
769.92945502
 10
-594.09478524
 20
768.62366231
 10
-594.22256578
 20
767.80450042
 10
-594.26684616
 20
767.52063244
  0
LINE
  5
18B
100
AcDbEntity
  8
DETAIL_1
 62
    42
370
    -2
100
AcDbLine
 10
-560.60526106
 20
761.16075805
 30
0.0
 11
-558.09351413
 21
761.25090529
 31
0.0
  0
LWPOLYLINE
  5
18C
100
AcDbEntity
  8
DETAIL_1
 62
    42
370
    -3
100
AcDbPolyline
 90
      169
 70
     0
 43
0.0
 10
-548.93168652
 20
786.28131808
 10
-549.41544477
 20
785.07129784
 10
-549.94128608
 20
783.92143481
 10
-550.5085162
 20
782.83644713
 10
-551.11644089
 20
781.82105298
 10
-551.76436591
 20
780.8799705
 10
-552.45159699
 20
780.01791787
 10
-553.17743991
 20
779.23961322
 10
-553.94120041
 20
778.54977473
 10
-554.74218426
 20
777.95312054
 10
-555.57969719
 20
777.45436883
 10
-556.45304498
 20
777.05823774
 10
-557.36153336
 20
776.76944543
 10
-558.30446811
 20
776.59271006
 10
-559.28115496
 20
776.53274979
 10
-559.28115496
 20
776.53274979
 10
-559.28115496
 20
776.53274979
 10
-559.28115496
 20
776.53274979
 10
-559.28115496
 20
776.53274979
 10
-559.28115496
 20
776.53274979
 10
-559.28115496
 20
776.53274979
 10
-559.28115496
 20
776.53274979
 10
-559.28115496
 20
776.53274979
 10
-559.28115496
 20
776.53274979
 10
-559.28115496
 20
776.53274979
 10
-559.28115496
 20
776.53274979
 10
-559.28115496
 20
776.53274979
 10
-559.28115496
 20
776.53274979
 10
-559.28115496
 20
776.53274979
 10
-559.28115496
 20
776.53274979
 10
-559.28115496
 20
776.53274979
 10
-559.28115496
 20
776.53274979
 10
-559.28115496
 20
776.53274979
 10
-559.28115496
 20
776.53274979
 10
-559.28115496
 20
776.53274979
 10
-559.28115496
 20
776.53274979
 10
-559.28115496
 20
776.53274979
 10
-559.28115496
 20
776.53274979
 10
-559.28115496
 20
776.53274979
 10
-559.887188
 20
776.55152557
 10
-560.47844244
 20
776.60842887
 10
-561.05393946
 20
776.70432363
 10
-561.61270023
 20
776.84007381
 10
-562.15374594
 20
777.01654333
 10
-562.67609775
 20
777.23459614
 10
-563.17877684
 20
777.4950962
 10
-563.66080439
 20
777.79890743
 10
-564.12120157
 20
778.14689379
 10
-564.55898955
 20
778.53991922
 10
-564.97318952
 20
778.97884766
 10
-565.36282264
 20
779.46454306
 10
-565.72691009
 20
779.99786935
 10
-566.06447305
 20
780.57969049
 10
-566.37453269
 20
781.21087041
 10
-566.65611018
 20
781.89227306
 10
-566.90822671
 20
782.62476239
 10
-567.12990344
 20
783.40920233
 10
-567.32016156
 20
784.24645683
 10
-567.47802223
 20
785.13738983
 10
-567.60250663
 20
786.08286529
 10
-567.69263594
 20
787.08374713
 10
-567.74743133
 20
788.1408993
 10
-567.76591397
 20
789.25518575
 10
-567.76591397
 20
789.25518575
 10
-567.76591397
 20
789.25518575
 10
-567.76591397
 20
789.25518575
 10
-567.76591397
 20
789.25518575
 10
-567.76591397
 20
789.25518575
 10
-567.76591397
 20
789.25518575
 10
-567.76591397
 20
789.25518575
 10
-567.76591397
 20
789.25518575
 10
-567.76591397
 20
789.25518575
 10
-567.76591397
 20
789.25518575
 10
-567.76591397
 20
789.25518575
 10
-567.76591397
 20
789.25518575
 10
-567.76591397
 20
789.25518575
 10
-567.76591397
 20
789.25518575
 10
-567.76591397
 20
789.25518575
 10
-567.76591397
 20
789.25518575
 10
-567.76591397
 20
789.25518575
 10
-567.76591397
 20
789.25518575
 10
-567.76591397
 20
789.25518575
 10
-567.76591397
 20
789.25518575
 10
-567.76591397
 20
789.25518575
 10
-567.76591397
 20
789.25518575
 10
-567.76591397
 20
789.25518575
 10
-567.76591397
 20
789.25518575
 10
-567.74116946
 20
790.79165942
 10
-567.6673974
 20
792.31646169
 10
-567.54528998
 20
793.82481754
 10
-567.37553942
 20
795.31195195
 10
-567.15883792
 20
796.77308992
 10
-566.89587768
 20
798.20345643
 10
-566.58735091
 20
799.59827646
 10
-566.23394982
 20
800.95277499
 10
-565.8363666
 20
802.26217702
 10
-565.39529346
 20
803.52170752
 10
-564.91142261
 20
804.72659148
 10
-564.38544625
 20
805.87205388
 10
-563.81805659
 20
806.95331972
 10
-563.20994582
 20
807.96561397
 10
-562.56180616
 20
808.90416162
 10
-561.87432981
 20
809.76418765
 10
-561.14820897
 20
810.54091705
 10
-560.38413584
 20
811.2295748
 10
-559.58280264
 20
811.82538588
 10
-558.74490157
 20
812.32357529
 10
-557.87112483
 20
812.71936801
 10
-556.96216462
 20
813.00798902
 10
-556.01871315
 20
813.1846633
 10
-555.04146263
 20
813.24461584
 10
-554.4204917
 20
813.22649494
 10
-553.81688974
 20
813.17148165
 10
-553.2314618
 20
813.07860004
 10
-552.6650129
 20
812.94687422
 10
-552.11834812
 20
812.77532828
 10
-551.59227247
 20
812.56298629
 10
-551.08759102
 20
812.30887236
 10
-550.60510881
 20
812.01201058
 10
-550.14563088
 20
811.67142504
 10
-549.70996227
 20
811.28613982
 10
-549.29890804
 20
810.85517902
 10
-548.91327322
 20
810.37756673
 10
-548.55386286
 20
809.85232704
 10
-548.22148201
 20
809.27848404
 10
-547.9169357
 20
808.65506182
 10
-547.641029
 20
807.98108448
 10
-547.39456693
 20
807.25557609
 10
-547.17835455
 20
806.47756077
 10
-546.9931969
 20
805.64606259
 10
-546.83989903
 20
804.76010564
 10
-546.71926597
 20
803.81871402
 10
-546.63210278
 20
802.82091182
 10
-546.5792145
 20
801.76572312
 10
-546.56140618
 20
800.65217203
 10
-546.56140618
 20
800.65217203
 10
-546.56140618
 20
800.65217203
 10
-546.56140618
 20
800.65217203
 10
-546.56140618
 20
800.65217203
 10
-546.56140618
 20
800.65217203
 10
-546.56140618
 20
800.65217203
 10
-546.56140618
 20
800.65217203
 10
-546.56140618
 20
800.65217203
 10
-546.56140618
 20
800.65217203
 10
-546.56140618
 20
800.65217203
 10
-546.56140618
 20
800.65217203
 10
-546.56140618
 20
800.65217203
 10
-546.56140618
 20
800.65217203
 10
-546.56140618
 20
800.65217203
 10
-546.56140618
 20
800.65217203
 10
-546.56140618
 20
800.65217203
 10
-546.56140618
 20
800.65217203
 10
-546.56140618
 20
800.65217203
 10
-546.56140618
 20
800.65217203
 10
-546.56140618
 20
800.65217203
 10
-546.56140618
 20
800.65217203
 10
-546.56140618
 20
800.65217203
 10
-546.56140618
 20
800.65217203
 10
-546.56140618
 20
800.65217203
 10
-546.58615035
 20
799.10007842
 10
-546.65992003
 20
797.56096044
 10
-546.78202098
 20
796.03953624
 10
-546.95175896
 20
794.54052399
 10
-547.16843971
 20
793.06864183
 10
-547.43136899
 20
791.62860794
 10
-547.73985256
 20
790.22514045
 10
-548.09319616
 20
788.86295755
 10
-548.49070557
 20
787.54677737
 10
-548.93168652
 20
786.28131808
  0
LWPOLYLINE
  5
18D
100
AcDbEntity
  8
DETAIL_1
 62
    42
370
    -3
100
AcDbPolyline
 90
       96
 70
     0
 43
0.0
 10
-558.09351413
 20
761.25090529
 10
-555.66148734
 20
761.5174737
 10
-553.31159554
 20
761.95465331
 10
-551.04625358
 20
762.55663414
 10
-548.86787629
 20
763.31760624
 10
-546.77887851
 20
764.23175964
 10
-544.7816751
 20
765.29328435
 10
-542.87868089
 20
766.49637043
 10
-541.07231072
 20
767.83520788
 10
-539.36497945
 20
769.30398676
 10
-537.75910191
 20
770.89689708
 10
-536.25709294
 20
772.60812888
 10
-534.8613674
 20
774.43187219
 10
-533.57434011
 20
776.36231704
 10
-532.39842594
 20
778.39365346
 10
-531.33603971
 20
780.52007149
 10
-530.38959627
 20
782.73576115
 10
-529.56151046
 20
785.03491247
 10
-528.85419713
 20
787.41171549
 10
-528.27007113
 20
789.86036024
 10
-527.81154729
 20
792.37503674
 10
-527.48104045
 20
794.94993504
 10
-527.28096546
 20
797.57924515
 10
-527.21373717
 20
800.25715712
 10
-527.26526106
 20
802.36372855
 10
-527.41887578
 20
804.40851009
 10
-527.6731459
 20
806.38902566
 10
-528.02663598
 20
808.30279919
 10
-528.47791058
 20
810.1473546
 10
-529.02553426
 20
811.92021583
 10
-529.66807161
 20
813.6189068
 10
-530.40408717
 20
815.24095142
 10
-531.23214552
 20
816.78387364
 10
-532.15081122
 20
818.24519737
 10
-533.15864883
 20
819.62244653
 10
-534.25422292
 20
820.91314507
 10
-535.43609806
 20
822.11481689
 10
-536.7028388
 20
823.22498593
 10
-538.05300972
 20
824.24117611
 10
-539.48517538
 20
825.16091137
 10
-540.99790035
 20
825.98171561
 10
-542.58974918
 20
826.70111278
 10
-544.25928645
 20
827.31662679
 10
-546.00507672
 20
827.82578157
 10
-547.82568455
 20
828.22610104
 10
-549.71967452
 20
828.51510914
 10
-551.68561117
 20
828.69032979
 10
-553.72205909
 20
828.74928691
 10
-556.23380602
 20
828.6591284
 10
-558.66583281
 20
828.39248807
 10
-561.01572461
 20
827.95511874
 10
-563.28106657
 20
827.35277323
 10
-565.45944387
 20
826.59120437
 10
-567.54844164
 20
825.67616497
 10
-569.54564505
 20
824.61340786
 10
-571.44863926
 20
823.40868584
 10
-573.25500943
 20
822.06775175
 10
-574.9623407
 20
820.5963584
 10
-576.56821824
 20
819.00025861
 10
-578.07022721
 20
817.2852052
 10
-579.46595275
 20
815.456951
 10
-580.75298004
 20
813.52124882
 10
-581.92889421
 20
811.48385147
 10
-582.99128045
 20
809.35051179
 10
-583.93772388
 20
807.12698259
 10
-584.76580969
 20
804.81901669
 10
-585.47312302
 20
802.43236691
 10
-586.05724902
 20
799.97278607
 10
-586.51577287
 20
797.44602699
 10
-586.8462797
 20
794.85784249
 10
-587.04635469
 20
792.21398539
 10
-587.11358298
 20
789.52020851
 10
-587.06205909
 20
787.42923207
 10
-586.90844437
 20
785.39877351
 10
-586.65417425
 20
783.431363
 10
-586.30068418
 20
781.52953071
 10
-585.84940958
 20
779.69580678
 10
-585.30178589
 20
777.93272138
 10
-584.65924854
 20
776.24280468
 10
-583.92323298
 20
774.62858684
 10
-583.09517463
 20
773.09259802
 10
-582.17650893
 20
771.63736838
 10
-581.16867132
 20
770.26542808
 10
-580.07309723
 20
768.97930729
 10
-578.89122209
 20
767.78153616
 10
-577.62448135
 20
766.67464486
 10
-576.27431043
 20
765.66116355
 10
-574.84214477
 20
764.74362239
 10
-573.3294198
 20
763.92455155
 10
-571.73757097
 20
763.20648118
 10
-570.0680337
 20
762.59194146
 10
-568.32224343
 20
762.08346253
 10
-566.5016356
 20
761.68357456
 10
-564.60764564
 20
761.39480772
 10
-562.64170898
 20
761.21969216
 10
-560.60526106
 20
761.16075805
  0
LINE
  5
18E
100
AcDbEntity
  8
DETAIL_1
 62
    42
370
    -2
100
AcDbLine
 10
-510.0682091
 20
811.49761538
 30
0.0
 11
-509.13285439
 21
811.52550416
 31
0.0
  0
LWPOLYLINE
  5
18F
100
AcDbEntity
  8
DETAIL_1
 62
    42
370
    -3
100
AcDbPolyline
 90
      169
 70
     0
 43
0.0
 10
-503.79888651
 20
814.78751162
 10
-504.40374108
 20
814.42688631
 10
-505.03507788
 20
814.10710631
 10
-505.69137631
 20
813.82859382
 10
-506.3711158
 20
813.59177106
 10
-507.07277579
 20
813.39706022
 10
-507.79483568
 20
813.24488351
 10
-508.53577492
 20
813.13566313
 10
-509.29407291
 20
813.06982128
 10
-510.0682091
 20
813.04778018
 10
-510.0682091
 20
813.04778018
 10
-510.0682091
 20
813.04778018
 10
-510.0682091
 20
813.04778018
 10
-510.0682091
 20
813.04778018
 10
-510.0682091
 20
813.04778018
 10
-510.0682091
 20
813.04778018
 10
-510.0682091
 20
813.04778018
 10
-510.0682091
 20
813.04778018
 10
-510.0682091
 20
813.04778018
 10
-510.0682091
 20
813.04778018
 10
-510.0682091
 20
813.04778018
 10
-510.0682091
 20
813.04778018
 10
-510.0682091
 20
813.04778018
 10
-510.0682091
 20
813.04778018
 10
-510.0682091
 20
813.04778018
 10
-510.0682091
 20
813.04778018
 10
-510.0682091
 20
813.04778018
 10
-510.0682091
 20
813.04778018
 10
-510.0682091
 20
813.04778018
 10
-510.0682091
 20
813.04778018
 10
-510.0682091
 20
813.04778018
 10
-510.0682091
 20
813.04778018
 10
-510.0682091
 20
813.04778018
 10
-510.0682091
 20
813.04778018
 10
-510.83610178
 20
813.06982128
 10
-511.5892255
 20
813.13566313
 10
-512.32598823
 20
813.24488351
 10
-513.04479796
 20
813.39706022
 10
-513.74406269
 20
813.59177106
 10
-514.42219039
 20
813.82859382
 10
-515.07758906
 20
814.10710631
 10
-515.70866669
 20
814.42688631
 10
-516.31383126
 20
814.78751162
 10
-516.89149077
 20
815.18856004
 10
-517.44005319
 20
815.62960936
 10
-517.95792652
 20
816.11023739
 10
-518.44351874
 20
816.63002191
 10
-518.89523785
 20
817.18854073
 10
-519.31149184
 20
817.78537163
 10
-519.69068868
 20
818.42009242
 10
-520.03123637
 20
819.09228089
 10
-520.33154289
 20
819.80151483
 10
-520.59001624
 20
820.54737205
 10
-520.8050644
 20
821.32943034
 10
-520.97509536
 20
822.1472675
 10
-521.09851711
 20
823.00046131
 10
-521.17373763
 20
823.88858959
 10
-521.19916492
 20
824.81123012
 10
-521.19916492
 20
824.81123012
 10
-521.19916492
 20
824.81123012
 10
-521.19916492
 20
824.81123012
 10
-521.19916492
 20
824.81123012
 10
-521.19916492
 20
824.81123012
 10
-521.19916492
 20
824.81123012
 10
-521.19916492
 20
824.81123012
 10
-521.19916492
 20
824.81123012
 10
-521.19916492
 20
824.81123012
 10
-521.19916492
 20
824.81123012
 10
-521.19916492
 20
824.81123012
 10
-521.19916492
 20
824.81123012
 10
-521.19916492
 20
824.81123012
 10
-521.19916492
 20
824.81123012
 10
-521.19916492
 20
824.81123012
 10
-521.19916492
 20
824.81123012
 10
-521.19916492
 20
824.81123012
 10
-521.19916492
 20
824.81123012
 10
-521.19916492
 20
824.81123012
 10
-521.19916492
 20
824.81123012
 10
-521.19916492
 20
824.81123012
 10
-521.19916492
 20
824.81123012
 10
-521.19916492
 20
824.81123012
 10
-521.19916492
 20
824.81123012
 10
-521.17373763
 20
825.74063635
 10
-521.09851711
 20
826.63497022
 10
-520.97509536
 20
827.49383371
 10
-520.8050644
 20
828.31682881
 10
-520.59001624
 20
829.10355754
 10
-520.33154289
 20
829.85362188
 10
-520.03123637
 20
830.56662383
 10
-519.69068868
 20
831.24216539
 10
-519.31149184
 20
831.87984856
 10
-518.89523785
 20
832.47927532
 10
-518.44351874
 20
833.04004769
 10
-517.95792652
 20
833.56176766
 10
-517.44005319
 20
834.04403721
 10
-516.89149077
 20
834.48645836
 10
-516.31383126
 20
834.88863309
 10
-515.70866669
 20
835.25016341
 10
-515.07758906
 20
835.57065131
 10
-514.42219039
 20
835.84969879
 10
-513.74406269
 20
836.08690785
 10
-513.04479796
 20
836.28188048
 10
-512.32598823
 20
836.43421867
 10
-511.5892255
 20
836.54352444
 10
-510.83610178
 20
836.60939976
 10
-510.0682091
 20
836.63144665
 10
-509.30016557
 20
836.60939976
 10
-508.54692367
 20
836.54352444
 10
-507.81007307
 20
836.43421867
 10
-507.09120347
 20
836.28188048
 10
-506.39190453
 20
836.08690785
 10
-505.71376594
 20
835.84969879
 10
-505.05837738
 20
835.57065131
 10
-504.42732852
 20
835.25016341
 10
-503.82220905
 20
834.88863309
 10
-503.24460864
 20
834.48645836
 10
-502.69611697
 20
834.04403721
 10
-502.17832373
 20
833.56176766
 10
-501.69281858
 20
833.04004769
 10
-501.24119122
 20
832.47927532
 10
-500.82503133
 20
831.87984856
 10
-500.44592857
 20
831.24216539
 10
-500.10547263
 20
830.56662383
 10
-499.80525319
 20
829.85362188
 10
-499.54685992
 20
829.10355754
 10
-499.33188252
 20
828.31682881
 10
-499.16191065
 20
827.49383371
 10
-499.038534
 20
826.63497022
 10
-498.96334224
 20
825.74063635
 10
-498.93792506
 20
824.81123012
 10
-498.93792506
 20
824.81123012
 10
-498.93792506
 20
824.81123012
 10
-498.93792506
 20
824.81123012
 10
-498.93792506
 20
824.81123012
 10
-498.93792506
 20
824.81123012
 10
-498.93792506
 20
824.81123012
 10
-498.93792506
 20
824.81123012
 10
-498.93792506
 20
824.81123012
 10
-498.93792506
 20
824.81123012
 10
-498.93792506
 20
824.81123012
 10
-498.93792506
 20
824.81123012
 10
-498.93792506
 20
824.81123012
 10
-498.93792506
 20
824.81123012
 10
-498.93792506
 20
824.81123012
 10
-498.93792506
 20
824.81123012
 10
-498.93792506
 20
824.81123012
 10
-498.93792506
 20
824.81123012
 10
-498.93792506
 20
824.81123012
 10
-498.93792506
 20
824.81123012
 10
-498.93792506
 20
824.81123012
 10
-498.93792506
 20
824.81123012
 10
-498.93792506
 20
824.81123012
 10
-498.93792506
 20
824.81123012
 10
-498.93792506
 20
824.81123012
 10
-498.96307735
 20
823.88858959
 10
-499.03752048
 20
823.00046131
 10
-499.15973388
 20
822.1472675
 10
-499.32819698
 20
821.32943034
 10
-499.54138921
 20
820.54737205
 10
-499.79778997
 20
819.80151483
 10
-500.09587871
 20
819.09228089
 10
-500.43413485
 20
818.42009242
 10
-500.8110378
 20
817.78537163
 10
-501.225067
 20
817.18854073
 10
-501.67470187
 20
816.63002191
 10
-502.15842183
 20
816.11023739
 10
-502.6747063
 20
815.62960936
 10
-503.22203472
 20
815.18856004
 10
-503.79888651
 20
814.78751162
  0
LWPOLYLINE
  5
190
100
AcDbEntity
  8
DETAIL_1
 62
    42
370
    -3
100
AcDbPolyline
 90
       96
 70
     0
 43
0.0
 10
-509.13285439
 20
811.52550416
 10
-508.22103784
 20
811.6083401
 10
-507.33420539
 20
811.74487758
 10
-506.47380296
 20
811.93387098
 10
-505.64127648
 20
812.17407468
 10
-504.83807189
 20
812.46424306
 10
-504.06563511
 20
812.80313051
 10
-503.32541209
 20
813.1894914
 10
-502.61884875
 20
813.62208013
 10
-501.94739102
 20
814.09965106
 10
-501.31248483
 20
814.62095859
 10
-500.71557613
 20
815.18475709
 10
-500.15811083
 20
815.78980095
 10
-499.64153487
 20
816.43484455
 10
-499.16729419
 20
817.11864226
 10
-498.73683471
 20
817.83994848
 10
-498.35160236
 20
818.59751758
 10
-498.01304309
 20
819.39010395
 10
-497.72260281
 20
820.21646197
 10
-497.48172746
 20
821.07534601
 10
-497.29186297
 20
821.96551047
 10
-497.15445528
 20
822.88570971
 10
-497.07095032
 20
823.83469814
 10
-497.04279401
 20
824.81123012
 10
-497.07037358
 20
825.79440362
 10
-497.15224863
 20
826.74947709
 10
-497.28712368
 20
827.67522926
 10
-497.47370325
 20
828.57043885
 10
-497.71069187
 20
829.43388459
 10
-497.99679407
 20
830.26434522
 10
-498.33071435
 20
831.06059946
 10
-498.71115725
 20
831.82142604
 10
-499.13682728
 20
832.54560369
 10
-499.60642897
 20
833.23191113
 10
-500.11866684
 20
833.8791271
 10
-500.67224541
 20
834.48603032
 10
-501.26586921
 20
835.05139953
 10
-501.89824275
 20
835.57401344
 10
-502.56807056
 20
836.0526508
 10
-503.27405716
 20
836.48609032
 10
-504.01490708
 20
836.87311074
 10
-504.78932483
 20
837.21249078
 10
-505.59601494
 20
837.50300918
 10
-506.43368192
 20
837.74344466
 10
-507.30103031
 20
837.93257595
 10
-508.19676462
 20
838.06918178
 10
-509.11958937
 20
838.15204087
 10
-510.0682091
 20
838.17993197
 10
-511.00364093
 20
838.15175753
 10
-511.91552147
 20
838.06809769
 10
-512.80240568
 20
837.93024763
 10
-513.6628485
 20
837.73950253
 10
-514.49540486
 20
837.49715759
 10
-515.29862972
 20
837.20450798
 10
-516.07107801
 20
836.8628489
 10
-516.81130468
 20
836.47347552
 10
-517.51786467
 20
836.03768304
 10
-518.18931292
 20
835.55676665
 10
-518.82420438
 20
835.03202152
 10
-519.42109399
 20
834.46474285
 10
-519.97853669
 20
833.85622582
 10
-520.49508742
 20
833.20776562
 10
-520.96930114
 20
832.52065743
 10
-521.39973277
 20
831.79619644
 10
-521.78493727
 20
831.03567784
 10
-522.12346958
 20
830.24039682
 10
-522.41388464
 20
829.41164855
 10
-522.65473739
 20
828.55072822
 10
-522.84458277
 20
827.65893103
 10
-522.98197574
 20
826.73755216
 10
-523.06547123
 20
825.78788679
 10
-523.09362418
 20
824.81123012
 10
-523.06604797
 20
823.82806563
 10
-522.9841824
 20
822.8735731
 10
-522.84932207
 20
821.94892293
 10
-522.66276159
 20
821.05528549
 10
-522.42579557
 20
820.1938312
 10
-522.1397186
 20
819.36573042
 10
-521.80582529
 20
818.57215357
 10
-521.42541023
 20
817.81427102
 10
-520.99976805
 20
817.09325317
 10
-520.53019333
 20
816.41027041
 10
-520.01798068
 20
815.76649314
 10
-519.4644247
 20
815.16309173
 10
-518.87082001
 20
814.60123659
 10
-518.23846119
 20
814.08209811
 10
-517.56864285
 20
813.60684667
 10
-516.8626596
 20
813.17665267
 10
-516.12180604
 20
812.7926865
 10
-515.34737678
 20
812.45611855
 10
-514.54066641
 20
812.16811921
 10
-513.70296953
 20
811.92985888
 10
-512.83558076
 20
811.74250793
 10
-511.9397947
 20
811.60723677
 10
-511.01690594
 20
811.52521579
 10
-510.0682091
 20
811.49761538
  0
LINE
  5
191
100
AcDbEntity
  8
DETAIL_1
 62
    42
370
    -2
100
AcDbLine
 10
-507.31586882
 20
817.7526899
 30
0.0
 11
-507.33271421
 21
817.77941733
 31
0.0
  0
LWPOLYLINE
  5
192
100
AcDbEntity
  8
DETAIL_1
 62
    42
370
    -3
100
AcDbPolyline
 90
      217
 70
     0
 43
0.0
 10
-508.00311415
 20
827.73722916
 10
-508.00728375
 20
827.56866323
 10
-508.0197601
 20
827.40726047
 10
-508.0404945
 20
827.25302178
 10
-508.06943826
 20
827.10594801
 10
-508.10654268
 20
826.96604004
 10
-508.15175908
 20
826.83329875
 10
-508.20503876
 20
826.70772502
 10
-508.26633301
 20
826.58931971
 10
-508.33559316
 20
826.47808371
 10
-508.41277051
 20
826.37401788
 10
-508.49781637
 20
826.2771231
 10
-508.59068203
 20
826.18740025
 10
-508.69131881
 20
826.1048502
 10
-508.79967802
 20
826.02947383
 10
-508.91571096
 20
825.96127201
 10
-509.03936893
 20
825.90024561
 10
-509.17060325
 20
825.84639552
 10
-509.30936522
 20
825.7997226
 10
-509.45560615
 20
825.76022772
 10
-509.60927734
 20
825.72791178
 10
-509.7703301
 20
825.70277563
 10
-509.93871574
 20
825.68482015
 10
-510.11438556
 20
825.67404623
 10
-510.29729087
 20
825.67045472
 10
-510.29729087
 20
825.67045472
 10
-510.29729087
 20
825.67045472
 10
-510.29729087
 20
825.67045472
 10
-510.29729087
 20
825.67045472
 10
-510.29729087
 20
825.67045472
 10
-510.29729087
 20
825.67045472
 10
-510.29729087
 20
825.67045472
 10
-510.29729087
 20
825.67045472
 10
-510.29729087
 20
825.67045472
 10
-510.29729087
 20
825.67045472
 10
-510.29729087
 20
825.67045472
 10
-510.29729087
 20
825.67045472
 10
-510.29729087
 20
825.67045472
 10
-510.29729087
 20
825.67045472
 10
-510.29729087
 20
825.67045472
 10
-510.29729087
 20
825.67045472
 10
-510.29729087
 20
825.67045472
 10
-510.29729087
 20
825.67045472
 10
-510.29729087
 20
825.67045472
 10
-510.29729087
 20
825.67045472
 10
-510.29729087
 20
825.67045472
 10
-510.29729087
 20
825.67045472
 10
-510.29729087
 20
825.67045472
 10
-510.29729087
 20
825.67045472
 10
-510.30310104
 20
825.67045472
 10
-510.31986751
 20
825.67045472
 10
-510.34659426
 20
825.67045472
 10
-510.38228526
 20
825.67045472
 10
-510.42594449
 20
825.67045472
 10
-510.47657591
 20
825.67045472
 10
-510.5331835
 20
825.67045472
 10
-510.59477124
 20
825.67045472
 10
-510.66034308
 20
825.67045472
 10
-510.72890301
 20
825.67045472
 10
-510.79945499
 20
825.67045472
 10
-510.871003
 20
825.67045472
 10
-510.94255101
 20
825.67045472
 10
-511.013103
 20
825.67045472
 10
-511.08166292
 20
825.67045472
 10
-511.14723477
 20
825.67045472
 10
-511.2088225
 20
825.67045472
 10
-511.26543009
 20
825.67045472
 10
-511.31606151
 20
825.67045472
 10
-511.35972074
 20
825.67045472
 10
-511.39541175
 20
825.67045472
 10
-511.4221385
 20
825.67045472
 10
-511.43890497
 20
825.67045472
 10
-511.44471513
 20
825.67045472
 10
-511.44471513
 20
825.67045472
 10
-511.44471513
 20
825.67045472
 10
-511.44471513
 20
825.67045472
 10
-511.44471513
 20
825.67045472
 10
-511.44471513
 20
825.67045472
 10
-511.44471513
 20
825.67045472
 10
-511.44471513
 20
825.67045472
 10
-511.44471513
 20
825.67045472
 10
-511.44471513
 20
825.67045472
 10
-511.44471513
 20
825.67045472
 10
-511.44471513
 20
825.67045472
 10
-511.44471513
 20
825.67045472
 10
-511.44471513
 20
825.67045472
 10
-511.44471513
 20
825.67045472
 10
-511.44471513
 20
825.67045472
 10
-511.44471513
 20
825.67045472
 10
-511.44471513
 20
825.67045472
 10
-511.44471513
 20
825.67045472
 10
-511.44471513
 20
825.67045472
 10
-511.44471513
 20
825.67045472
 10
-511.44471513
 20
825.67045472
 10
-511.44471513
 20
825.67045472
 10
-511.44471513
 20
825.67045472
 10
-511.44471513
 20
825.67045472
 10
-511.44471513
 20
825.69108114
 10
-511.44471513
 20
825.7506031
 10
-511.44471513
 20
825.84548463
 10
-511.44471513
 20
825.97218978
 10
-511.44471513
 20
826.12718259
 10
-511.44471513
 20
826.30692711
 10
-511.44471513
 20
826.50788738
 10
-511.44471513
 20
826.72652743
 10
-511.44471513
 20
826.95931131
 10
-511.44471513
 20
827.20270307
 10
-511.44471513
 20
827.45316674
 10
-511.44471513
 20
827.70716637
 10
-511.44471513
 20
827.961166
 10
-511.44471513
 20
828.21162967
 10
-511.44471513
 20
828.45502143
 10
-511.44471513
 20
828.68780531
 10
-511.44471513
 20
828.90644537
 10
-511.44471513
 20
829.10740563
 10
-511.44471513
 20
829.28715015
 10
-511.44471513
 20
829.44214296
 10
-511.44471513
 20
829.56884811
 10
-511.44471513
 20
829.66372965
 10
-511.44471513
 20
829.7232516
 10
-511.44471513
 20
829.74387802
 10
-511.44471513
 20
829.74387802
 10
-511.44471513
 20
829.74387802
 10
-511.44471513
 20
829.74387802
 10
-511.44471513
 20
829.74387802
 10
-511.44471513
 20
829.74387802
 10
-511.44471513
 20
829.74387802
 10
-511.44471513
 20
829.74387802
 10
-511.44471513
 20
829.74387802
 10
-511.44471513
 20
829.74387802
 10
-511.44471513
 20
829.74387802
 10
-511.44471513
 20
829.74387802
 10
-511.44471513
 20
829.74387802
 10
-511.44471513
 20
829.74387802
 10
-511.44471513
 20
829.74387802
 10
-511.44471513
 20
829.74387802
 10
-511.44471513
 20
829.74387802
 10
-511.44471513
 20
829.74387802
 10
-511.44471513
 20
829.74387802
 10
-511.44471513
 20
829.74387802
 10
-511.44471513
 20
829.74387802
 10
-511.44471513
 20
829.74387802
 10
-511.44471513
 20
829.74387802
 10
-511.44471513
 20
829.74387802
 10
-511.44471513
 20
829.74387802
 10
-511.43862943
 20
829.74387802
 10
-511.42106782
 20
829.74387802
 10
-511.39307359
 20
829.74387802
 10
-511.35568998
 20
829.74387802
 10
-511.30996026
 20
829.74387802
 10
-511.2569277
 20
829.74387802
 10
-511.19763555
 20
829.74387802
 10
-511.13312709
 20
829.74387802
 10
-511.06444558
 20
829.74387802
 10
-510.99263427
 20
829.74387802
 10
-510.91873644
 20
829.74387802
 10
-510.84379534
 20
829.74387802
 10
-510.76885425
 20
829.74387802
 10
-510.69495641
 20
829.74387802
 10
-510.62314511
 20
829.74387802
 10
-510.55446359
 20
829.74387802
 10
-510.48995513
 20
829.74387802
 10
-510.43066299
 20
829.74387802
 10
-510.37763042
 20
829.74387802
 10
-510.33190071
 20
829.74387802
 10
-510.2945171
 20
829.74387802
 10
-510.26652286
 20
829.74387802
 10
-510.24896126
 20
829.74387802
 10
-510.24287555
 20
829.74387802
 10
-510.06649268
 20
829.74001591
 10
-509.89680209
 20
829.72849538
 10
-509.73387609
 20
829.70941512
 10
-509.57778699
 20
829.68287383
 10
-509.42860711
 20
829.64897022
 10
-509.28640876
 20
829.60780299
 10
-509.15126424
 20
829.55947082
 10
-509.02324587
 20
829.50407242
 10
-508.90242597
 20
829.4417065
 10
-508.78887683
 20
829.37247174
 10
-508.68267078
 20
829.29646685
 10
-508.58388011
 20
829.21379052
 10
-508.49257716
 20
829.12454146
 10
-508.40883422
 20
829.02881836
 10
-508.33272361
 20
828.92671993
 10
-508.26431763
 20
828.81834485
 10
-508.20368861
 20
828.70379184
 10
-508.15090884
 20
828.58315959
 10
-508.10605065
 20
828.45654679
 10
-508.06918634
 20
828.32405216
 10
-508.04038822
 20
828.18577437
 10
-508.01972861
 20
828.04181215
 10
-508.00727982
 20
827.89226418
 10
-508.00311415
 20
827.73722916
 10
-508.00311415
 20
827.73722916
 10
-508.00311415
 20
827.73722916
 10
-508.00311415
 20
827.73722916
 10
-508.00311415
 20
827.73722916
 10
-508.00311415
 20
827.73722916
 10
-508.00311415
 20
827.73722916
 10
-508.00311415
 20
827.73722916
 10
-508.00311415
 20
827.73722916
 10
-508.00311415
 20
827.73722916
 10
-508.00311415
 20
827.73722916
 10
-508.00311415
 20
827.73722916
 10
-508.00311415
 20
827.73722916
 10
-508.00311415
 20
827.73722916
 10
-508.00311415
 20
827.73722916
 10
-508.00311415
 20
827.73722916
 10
-508.00311415
 20
827.73722916
 10
-508.00311415
 20
827.73722916
 10
-508.00311415
 20
827.73722916
 10
-508.00311415
 20
827.73722916
 10
-508.00311415
 20
827.73722916
 10
-508.00311415
 20
827.73722916
 10
-508.00311415
 20
827.73722916
 10
-508.00311415
 20
827.73722916
 10
-508.00311415
 20
827.73722916
  0
LWPOLYLINE
  5
193
100
AcDbEntity
  8
DETAIL_1
 62
    42
370
    -3
100
AcDbPolyline
 90
      456
 70
     0
 43
0.0
 10
-507.33271421
 20
817.77941733
 10
-507.3813252
 20
817.85654506
 10
-507.458814
 20
817.97949125
 10
-507.56229284
 20
818.14367404
 10
-507.68887392
 20
818.3445116
 10
-507.83566948
 20
818.57742208
 10
-507.99979172
 20
818.83782363
 10
-508.17835287
 20
819.1211344
 10
-508.36846515
 20
819.42277256
 10
-508.56724077
 20
819.73815626
 10
-508.77179196
 20
820.06270364
 10
-508.97923092
 20
820.39183287
 10
-509.18666989
 20
820.7209621
 10
-509.39122107
 20
821.04550949
 10
-509.58999669
 20
821.36089319
 10
-509.78010897
 20
821.66253134
 10
-509.95867012
 20
821.94584212
 10
-510.12279236
 20
822.20624367
 10
-510.26958792
 20
822.43915415
 10
-510.39616901
 20
822.6399917
 10
-510.49964784
 20
822.8041745
 10
-510.57713664
 20
822.92712069
 10
-510.62574763
 20
823.00424842
 10
-510.64259302
 20
823.03097585
 10
-510.64259302
 20
823.03097585
 10
-510.64259302
 20
823.03097585
 10
-510.64259302
 20
823.03097585
 10
-510.64259302
 20
823.03097585
 10
-510.64259302
 20
823.03097585
 10
-510.64259302
 20
823.03097585
 10
-510.64259302
 20
823.03097585
 10
-510.64259302
 20
823.03097585
 10
-510.64259302
 20
823.03097585
 10
-510.64259302
 20
823.03097585
 10
-510.64259302
 20
823.03097585
 10
-510.64259302
 20
823.03097585
 10
-510.64259302
 20
823.03097585
 10
-510.64259302
 20
823.03097585
 10
-510.64259302
 20
823.03097585
 10
-510.64259302
 20
823.03097585
 10
-510.64259302
 20
823.03097585
 10
-510.64259302
 20
823.03097585
 10
-510.64259302
 20
823.03097585
 10
-510.64259302
 20
823.03097585
 10
-510.64259302
 20
823.03097585
 10
-510.64259302
 20
823.03097585
 10
-510.64259302
 20
823.03097585
 10
-510.64259302
 20
823.03097585
 10
-510.64665469
 20
823.03097585
 10
-510.65837552
 20
823.03097585
 10
-510.6770592
 20
823.03097585
 10
-510.70200947
 20
823.03097585
 10
-510.73253003
 20
823.03097585
 10
-510.7679246
 20
823.03097585
 10
-510.80749689
 20
823.03097585
 10
-510.8505506
 20
823.03097585
 10
-510.89638947
 20
823.03097585
 10
-510.94431719
 20
823.03097585
 10
-510.99363749
 20
823.03097585
 10
-511.04365408
 20
823.03097585
 10
-511.09367066
 20
823.03097585
 10
-511.14299096
 20
823.03097585
 10
-511.19091868
 20
823.03097585
 10
-511.23675755
 20
823.03097585
 10
-511.27981127
 20
823.03097585
 10
-511.31938355
 20
823.03097585
 10
-511.35477812
 20
823.03097585
 10
-511.38529868
 20
823.03097585
 10
-511.41024895
 20
823.03097585
 10
-511.42893264
 20
823.03097585
 10
-511.44065346
 20
823.03097585
 10
-511.44471513
 20
823.03097585
 10
-511.44471513
 20
823.03097585
 10
-511.44471513
 20
823.03097585
 10
-511.44471513
 20
823.03097585
 10
-511.44471513
 20
823.03097585
 10
-511.44471513
 20
823.03097585
 10
-511.44471513
 20
823.03097585
 10
-511.44471513
 20
823.03097585
 10
-511.44471513
 20
823.03097585
 10
-511.44471513
 20
823.03097585
 10
-511.44471513
 20
823.03097585
 10
-511.44471513
 20
823.03097585
 10
-511.44471513
 20
823.03097585
 10
-511.44471513
 20
823.03097585
 10
-511.44471513
 20
823.03097585
 10
-511.44471513
 20
823.03097585
 10
-511.44471513
 20
823.03097585
 10
-511.44471513
 20
823.03097585
 10
-511.44471513
 20
823.03097585
 10
-511.44471513
 20
823.03097585
 10
-511.44471513
 20
823.03097585
 10
-511.44471513
 20
823.03097585
 10
-511.44471513
 20
823.03097585
 10
-511.44471513
 20
823.03097585
 10
-511.44471513
 20
823.03097585
 10
-511.44471513
 20
823.00512096
 10
-511.44471513
 20
822.93051115
 10
-511.44471513
 20
822.81157867
 10
-511.44471513
 20
822.65275579
 10
-511.44471513
 20
822.45847479
 10
-511.44471513
 20
822.23316792
 10
-511.44471513
 20
821.98126745
 10
-511.44471513
 20
821.70720565
 10
-511.44471513
 20
821.41541478
 10
-511.44471513
 20
821.11032712
 10
-511.44471513
 20
820.79637492
 10
-511.44471513
 20
820.47799046
 10
-511.44471513
 20
820.159606
 10
-511.44471513
 20
819.8456538
 10
-511.44471513
 20
819.54056614
 10
-511.44471513
 20
819.24877528
 10
-511.44471513
 20
818.97471348
 10
-511.44471513
 20
818.72281301
 10
-511.44471513
 20
818.49750614
 10
-511.44471513
 20
818.30322513
 10
-511.44471513
 20
818.14440226
 10
-511.44471513
 20
818.02546978
 10
-511.44471513
 20
817.95085996
 10
-511.44471513
 20
817.92500507
 10
-511.44471513
 20
817.92500507
 10
-511.44471513
 20
817.92500507
 10
-511.44471513
 20
817.92500507
 10
-511.44471513
 20
817.92500507
 10
-511.44471513
 20
817.92500507
 10
-511.44471513
 20
817.92500507
 10
-511.44471513
 20
817.92500507
 10
-511.44471513
 20
817.92500507
 10
-511.44471513
 20
817.92500507
 10
-511.44471513
 20
817.92500507
 10
-511.44471513
 20
817.92500507
 10
-511.44471513
 20
817.92500507
 10
-511.44471513
 20
817.92500507
 10
-511.44471513
 20
817.92500507
 10
-511.44471513
 20
817.92500507
 10
-511.44471513
 20
817.92500507
 10
-511.44471513
 20
817.92500507
 10
-511.44471513
 20
817.92500507
 10
-511.44471513
 20
817.92500507
 10
-511.44471513
 20
817.92500507
 10
-511.44471513
 20
817.92500507
 10
-511.44471513
 20
817.92500507
 10
-511.44471513
 20
817.92500507
 10
-511.44471513
 20
817.92500507
 10
-511.46477176
 20
817.92500507
 10
-511.52264946
 20
817.92500507
 10
-511.61490996
 20
817.92500507
 10
-511.73811497
 20
817.92500507
 10
-511.88882621
 20
817.92500507
 10
-512.06360541
 20
817.92500507
 10
-512.25901429
 20
817.92500507
 10
-512.47161456
 20
817.92500507
 10
-512.69796795
 20
817.92500507
 10
-512.93463618
 20
817.92500507
 10
-513.17818096
 20
817.92500507
 10
-513.42516403
 20
817.92500507
 10
-513.67214709
 20
817.92500507
 10
-513.91569188
 20
817.92500507
 10
-514.15236011
 20
817.92500507
 10
-514.3787135
 20
817.92500507
 10
-514.59131377
 20
817.92500507
 10
-514.78672265
 20
817.92500507
 10
-514.96150184
 20
817.92500507
 10
-515.11221309
 20
817.92500507
 10
-515.2354181
 20
817.92500507
 10
-515.32767859
 20
817.92500507
 10
-515.3855563
 20
817.92500507
 10
-515.40561293
 20
817.92500507
 10
-515.40561293
 20
817.92500507
 10
-515.40561293
 20
817.92500507
 10
-515.40561293
 20
817.92500507
 10
-515.40561293
 20
817.92500507
 10
-515.40561293
 20
817.92500507
 10
-515.40561293
 20
817.92500507
 10
-515.40561293
 20
817.92500507
 10
-515.40561293
 20
817.92500507
 10
-515.40561293
 20
817.92500507
 10
-515.40561293
 20
817.92500507
 10
-515.40561293
 20
817.92500507
 10
-515.40561293
 20
817.92500507
 10
-515.40561293
 20
817.92500507
 10
-515.40561293
 20
817.92500507
 10
-515.40561293
 20
817.92500507
 10
-515.40561293
 20
817.92500507
 10
-515.40561293
 20
817.92500507
 10
-515.40561293
 20
817.92500507
 10
-515.40561293
 20
817.92500507
 10
-515.40561293
 20
817.92500507
 10
-515.40561293
 20
817.92500507
 10
-515.40561293
 20
817.92500507
 10
-515.40561293
 20
817.92500507
 10
-515.40561293
 20
817.92500507
 10
-515.40561293
 20
817.99938911
 10
-515.40561293
 20
818.21404019
 10
-515.40561293
 20
818.55620677
 10
-515.40561293
 20
819.01313729
 10
-515.40561293
 20
819.5720802
 10
-515.40561293
 20
820.22028396
 10
-515.40561293
 20
820.94499702
 10
-515.40561293
 20
821.73346782
 10
-515.40561293
 20
822.57294482
 10
-515.40561293
 20
823.45067647
 10
-515.40561293
 20
824.35391122
 10
-515.40561293
 20
825.26989751
 10
-515.40561293
 20
826.18588381
 10
-515.40561293
 20
827.08911856
 10
-515.40561293
 20
827.9668502
 10
-515.40561293
 20
828.8063272
 10
-515.40561293
 20
829.59479801
 10
-515.40561293
 20
830.31951106
 10
-515.40561293
 20
830.96771482
 10
-515.40561293
 20
831.52665774
 10
-515.40561293
 20
831.98358826
 10
-515.40561293
 20
832.32575483
 10
-515.40561293
 20
832.54040591
 10
-515.40561293
 20
832.61478995
 10
-515.40561293
 20
832.61478995
 10
-515.40561293
 20
832.61478995
 10
-515.40561293
 20
832.61478995
 10
-515.40561293
 20
832.61478995
 10
-515.40561293
 20
832.61478995
 10
-515.40561293
 20
832.61478995
 10
-515.40561293
 20
832.61478995
 10
-515.40561293
 20
832.61478995
 10
-515.40561293
 20
832.61478995
 10
-515.40561293
 20
832.61478995
 10
-515.40561293
 20
832.61478995
 10
-515.40561293
 20
832.61478995
 10
-515.40561293
 20
832.61478995
 10
-515.40561293
 20
832.61478995
 10
-515.40561293
 20
832.61478995
 10
-515.40561293
 20
832.61478995
 10
-515.40561293
 20
832.61478995
 10
-515.40561293
 20
832.61478995
 10
-515.40561293
 20
832.61478995
 10
-515.40561293
 20
832.61478995
 10
-515.40561293
 20
832.61478995
 10
-515.40561293
 20
832.61478995
 10
-515.40561293
 20
832.61478995
 10
-515.40561293
 20
832.61478995
 10
-515.37714721
 20
832.61478995
 10
-515.29500328
 20
832.61478995
 10
-515.16406097
 20
832.61478995
 10
-514.98920013
 20
832.61478995
 10
-514.77530059
 20
832.61478995
 10
-514.52724219
 20
832.61478995
 10
-514.24990476
 20
832.61478995
 10
-513.94816815
 20
832.61478995
 10
-513.62691218
 20
832.61478995
 10
-513.29101671
 20
832.61478995
 10
-512.94536156
 20
832.61478995
 10
-512.59482657
 20
832.61478995
 10
-512.24429158
 20
832.61478995
 10
-511.89863643
 20
832.61478995
 10
-511.56274095
 20
832.61478995
 10
-511.24148499
 20
832.61478995
 10
-510.93974837
 20
832.61478995
 10
-510.66241095
 20
832.61478995
 10
-510.41435254
 20
832.61478995
 10
-510.200453
 20
832.61478995
 10
-510.02559216
 20
832.61478995
 10
-509.89464986
 20
832.61478995
 10
-509.81250593
 20
832.61478995
 10
-509.78404021
 20
832.61478995
 10
-509.78404021
 20
832.61478995
 10
-509.78404021
 20
832.61478995
 10
-509.78404021
 20
832.61478995
 10
-509.78404021
 20
832.61478995
 10
-509.78404021
 20
832.61478995
 10
-509.78404021
 20
832.61478995
 10
-509.78404021
 20
832.61478995
 10
-509.78404021
 20
832.61478995
 10
-509.78404021
 20
832.61478995
 10
-509.78404021
 20
832.61478995
 10
-509.78404021
 20
832.61478995
 10
-509.78404021
 20
832.61478995
 10
-509.78404021
 20
832.61478995
 10
-509.78404021
 20
832.61478995
 10
-509.78404021
 20
832.61478995
 10
-509.78404021
 20
832.61478995
 10
-509.78404021
 20
832.61478995
 10
-509.78404021
 20
832.61478995
 10
-509.78404021
 20
832.61478995
 10
-509.78404021
 20
832.61478995
 10
-509.78404021
 20
832.61478995
 10
-509.78404021
 20
832.61478995
 10
-509.78404021
 20
832.61478995
 10
-509.78404021
 20
832.61478995
 10
-509.33998807
 20
832.60643383
 10
-508.91174555
 20
832.58143273
 10
-508.49958702
 20
832.53988754
 10
-508.10378684
 20
832.48189913
 10
-507.7246194
 20
832.4075684
 10
-507.36235907
 20
832.31699624
 10
-507.01728022
 20
832.21028352
 10
-506.68965723
 20
832.08753114
 10
-506.37976447
 20
831.94883997
 10
-506.08787632
 20
831.79431091
 10
-505.81426714
 20
831.62404484
 10
-505.55921132
 20
831.43814265
 10
-505.32298323
 20
831.23670522
 10
-505.10585724
 20
831.01983344
 10
-504.90810773
 20
830.78762819
 10
-504.73000907
 20
830.54019036
 10
-504.57183563
 20
830.27762083
 10
-504.4338618
 20
830.0000205
 10
-504.31636193
 20
829.70749025
 10
-504.21961042
 20
829.40013095
 10
-504.14388163
 20
829.07804351
 10
-504.08944993
 20
828.7413288
 10
-504.0565897
 20
828.3900877
 10
-504.04557532
 20
828.02442112
 10
-504.04557532
 20
828.02442112
 10
-504.04557532
 20
828.02442112
 10
-504.04557532
 20
828.02442112
 10
-504.04557532
 20
828.02442112
 10
-504.04557532
 20
828.02442112
 10
-504.04557532
 20
828.02442112
 10
-504.04557532
 20
828.02442112
 10
-504.04557532
 20
828.02442112
 10
-504.04557532
 20
828.02442112
 10
-504.04557532
 20
828.02442112
 10
-504.04557532
 20
828.02442112
 10
-504.04557532
 20
828.02442112
 10
-504.04557532
 20
828.02442112
 10
-504.04557532
 20
828.02442112
 10
-504.04557532
 20
828.02442112
 10
-504.04557532
 20
828.02442112
 10
-504.04557532
 20
828.02442112
 10
-504.04557532
 20
828.02442112
 10
-504.04557532
 20
828.02442112
 10
-504.04557532
 20
828.02442112
 10
-504.04557532
 20
828.02442112
 10
-504.04557532
 20
828.02442112
 10
-504.04557532
 20
828.02442112
 10
-504.04557532
 20
828.02442112
 10
-504.05149007
 20
827.76315657
 10
-504.06900259
 20
827.51021466
 10
-504.09776532
 20
827.26554509
 10
-504.13743072
 20
827.02909757
 10
-504.18765122
 20
826.80082178
 10
-504.24807925
 20
826.58066745
 10
-504.31836726
 20
826.36858426
 10
-504.39816768
 20
826.16452193
 10
-504.48713297
 20
825.96843016
 10
-504.58491555
 20
825.78025865
 10
-504.69116786
 20
825.59995709
 10
-504.80554236
 20
825.42747521
 10
-504.92769147
 20
825.26276269
 10
-505.05726764
 20
825.10576924
 10
-505.1939233
 20
824.95644457
 10
-505.3373109
 20
824.81473837
 10
-505.48708288
 20
824.68060036
 10
-505.64289167
 20
824.55398023
 10
-505.80438972
 20
824.43482768
 10
-505.97122946
 20
824.32309242
 10
-506.14306334
 20
824.21872415
 10
-506.3195438
 20
824.12167258
 10
-506.50032327
 20
824.03188741
 10
-506.6850542
 20
823.94931833
 10
-506.6850542
 20
823.94931833
 10
-506.6850542
 20
823.94931833
 10
-506.6850542
 20
823.94931833
 10
-506.6850542
 20
823.94931833
 10
-506.6850542
 20
823.94931833
 10
-506.6850542
 20
823.94931833
 10
-506.6850542
 20
823.94931833
 10
-506.6850542
 20
823.94931833
 10
-506.6850542
 20
823.94931833
 10
-506.6850542
 20
823.94931833
 10
-506.6850542
 20
823.94931833
 10
-506.6850542
 20
823.94931833
 10
-506.6850542
 20
823.94931833
 10
-506.6850542
 20
823.94931833
 10
-506.6850542
 20
823.94931833
 10
-506.6850542
 20
823.94931833
 10
-506.6850542
 20
823.94931833
 10
-506.6850542
 20
823.94931833
 10
-506.6850542
 20
823.94931833
 10
-506.6850542
 20
823.94931833
 10
-506.6850542
 20
823.94931833
 10
-506.6850542
 20
823.94931833
 10
-506.6850542
 20
823.94931833
 10
-506.6850542
 20
823.94931833
 10
-506.66645011
 20
823.92142411
 10
-506.61276402
 20
823.84092934
 10
-506.52718522
 20
823.71261589
 10
-506.41290296
 20
823.54126564
 10
-506.27310652
 20
823.33166045
 10
-506.11098518
 20
823.08858219
 10
-505.9297282
 20
822.81681272
 10
-505.73252486
 20
822.52113392
 10
-505.52256443
 20
822.20632764
 10
-505.30303618
 20
821.87717577
 10
-505.07712939
 20
821.53846015
 10
-504.84803333
 20
821.19496268
 10
-504.61893727
 20
820.8514652
 10
-504.39303048
 20
820.51274958
 10
-504.17350223
 20
820.18359771
 10
-503.9635418
 20
819.86879143
 10
-503.76633846
 20
819.57311263
 10
-503.58508149
 20
819.30134316
 10
-503.42296014
 20
819.0582649
 10
-503.28316371
 20
818.84865971
 10
-503.16888145
 20
818.67730946
 10
-503.08330264
 20
818.54899601
 10
-503.02961656
 20
818.46850125
 10
-503.01101247
 20
818.44060702
 10
-503.01101247
 20
818.44060702
 10
-503.01101247
 20
818.44060702
 10
-503.01101247
 20
818.44060702
 10
-503.01101247
 20
818.44060702
 10
-503.01101247
 20
818.44060702
 10
-503.01101247
 20
818.44060702
 10
-503.01101247
 20
818.44060702
 10
-503.01101247
 20
818.44060702
 10
-503.01101247
 20
818.44060702
 10
-503.01101247
 20
818.44060702
 10
-503.01101247
 20
818.44060702
 10
-503.01101247
 20
818.44060702
 10
-503.01101247
 20
818.44060702
 10
-503.01101247
 20
818.44060702
 10
-503.01101247
 20
818.44060702
 10
-503.01101247
 20
818.44060702
 10
-503.01101247
 20
818.44060702
 10
-503.01101247
 20
818.44060702
 10
-503.01101247
 20
818.44060702
 10
-503.01101247
 20
818.44060702
 10
-503.01101247
 20
818.44060702
 10
-503.01101247
 20
818.44060702
 10
-503.01101247
 20
818.44060702
 10
-503.01101247
 20
818.44060702
 10
-503.03281078
 20
818.43712364
 10
-503.0957145
 20
818.42707161
 10
-503.19598676
 20
818.41104808
 10
-503.32989072
 20
818.38965019
 10
-503.4936895
 20
818.36347511
 10
-503.68364627
 20
818.33311997
 10
-503.89602417
 20
818.29918193
 10
-504.12708634
 20
818.26225814
 10
-504.37309592
 20
818.22294574
 10
-504.63031607
 20
818.1818419
 10
-504.89500993
 20
818.13954375
 10
-505.16344064
 20
818.09664846
 10
-505.43187136
 20
818.05375316
 10
-505.69656522
 20
818.01145502
 10
-505.95378537
 20
817.97035117
 10
-506.19979495
 20
817.93103878
 10
-506.43085712
 20
817.89411499
 10
-506.64323502
 20
817.86017695
 10
-506.83319179
 20
817.82982181
 10
-506.99699057
 20
817.80364672
 10
-507.13089452
 20
817.78224884
 10
-507.23116679
 20
817.7662253
 10
-507.2940705
 20
817.75617327
 10
-507.31586882
 20
817.7526899
  0
LINE
  5
194
100
AcDbEntity
  8
DETAIL_1
 62
    42
370
    -2
100
AcDbLine
 10
-672.17917029
 20
828.21756191
 30
0.0
 11
-674.60431058
 21
828.13910796
 31
0.0
  0
LWPOLYLINE
  5
195
100
AcDbEntity
  8
DETAIL_1
 62
    42
370
    -3
100
AcDbPolyline
 90
      217
 70
     0
 43
0.0
 10
-667.80847812
 20
811.91849436
 10
-668.05580371
 20
812.01437384
 10
-668.30186517
 20
812.1035676
 10
-668.54671747
 20
812.18630729
 10
-668.79041555
 20
812.26282458
 10
-669.03301439
 20
812.33335113
 10
-669.27456894
 20
812.39811858
 10
-669.51513417
 20
812.45735861
 10
-669.75476504
 20
812.51130286
 10
-669.99351652
 20
812.56018299
 10
-670.23144356
 20
812.60423068
 10
-670.46860112
 20
812.64367756
 10
-670.70504418
 20
812.6787553
 10
-670.94082769
 20
812.70969556
 10
-671.17600661
 20
812.73673
 10
-671.41063591
 20
812.76009028
 10
-671.64477055
 20
812.78000804
 10
-671.87846549
 20
812.79671496
 10
-672.1117757
 20
812.81044268
 10
-672.34475613
 20
812.82142288
 10
-672.57746175
 20
812.8298872
 10
-672.80994752
 20
812.8360673
 10
-673.0422684
 20
812.84019484
 10
-673.27447936
 20
812.84250149
 10
-673.50663536
 20
812.84321889
 10
-673.50663536
 20
812.84321889
 10
-673.50663536
 20
812.84321889
 10
-673.50663536
 20
812.84321889
 10
-673.50663536
 20
812.84321889
 10
-673.50663536
 20
812.84321889
 10
-673.50663536
 20
812.84321889
 10
-673.50663536
 20
812.84321889
 10
-673.50663536
 20
812.84321889
 10
-673.50663536
 20
812.84321889
 10
-673.50663536
 20
812.84321889
 10
-673.50663536
 20
812.84321889
 10
-673.50663536
 20
812.84321889
 10
-673.50663536
 20
812.84321889
 10
-673.50663536
 20
812.84321889
 10
-673.50663536
 20
812.84321889
 10
-673.50663536
 20
812.84321889
 10
-673.50663536
 20
812.84321889
 10
-673.50663536
 20
812.84321889
 10
-673.50663536
 20
812.84321889
 10
-673.50663536
 20
812.84321889
 10
-673.50663536
 20
812.84321889
 10
-673.50663536
 20
812.84321889
 10
-673.50663536
 20
812.84321889
 10
-673.50663536
 20
812.84321889
 10
-674.57821159
 20
812.79787483
 10
-675.63713206
 20
812.66260659
 10
-676.68046802
 20
812.43856006
 10
-677.70529071
 20
812.12688115
 10
-678.70867139
 20
811.72871574
 10
-679.68768132
 20
811.24520975
 10
-680.63939174
 20
810.67750907
 10
-681.5608739
 20
810.0267596
 10
-682.44919906
 20
809.29410724
 10
-683.30143847
 20
808.48069788
 10
-684.11466339
 20
807.58767742
 10
-684.88594505
 20
806.61619177
 10
-685.61235472
 20
805.56738682
 10
-686.29096365
 20
804.44240847
 10
-686.91884309
 20
803.24240262
 10
-687.49306429
 20
801.96851517
 10
-688.0106985
 20
800.62189202
 10
-688.46881698
 20
799.20367906
 10
-688.86449097
 20
797.7150222
 10
-689.19479174
 20
796.15706733
 10
-689.45679052
 20
794.53096035
 10
-689.64755858
 20
792.83784716
 10
-689.76416717
 20
791.07887366
 10
-689.80368753
 20
789.25518575
 10
-689.80368753
 20
789.25518575
 10
-689.80368753
 20
789.25518575
 10
-689.80368753
 20
789.25518575
 10
-689.80368753
 20
789.25518575
 10
-689.80368753
 20
789.25518575
 10
-689.80368753
 20
789.25518575
 10
-689.80368753
 20
789.25518575
 10
-689.80368753
 20
789.25518575
 10
-689.80368753
 20
789.25518575
 10
-689.80368753
 20
789.25518575
 10
-689.80368753
 20
789.25518575
 10
-689.80368753
 20
789.25518575
 10
-689.80368753
 20
789.25518575
 10
-689.80368753
 20
789.25518575
 10
-689.80368753
 20
789.25518575
 10
-689.80368753
 20
789.25518575
 10
-689.80368753
 20
789.25518575
 10
-689.80368753
 20
789.25518575
 10
-689.80368753
 20
789.25518575
 10
-689.80368753
 20
789.25518575
 10
-689.80368753
 20
789.25518575
 10
-689.80368753
 20
789.25518575
 10
-689.80368753
 20
789.25518575
 10
-689.80368753
 20
789.25518575
 10
-689.78932574
 20
788.43153756
 10
-689.74665851
 20
787.65006836
 10
-689.67631301
 20
786.91014425
 10
-689.57891643
 20
786.21113135
 10
-689.45509595
 20
785.55239577
 10
-689.30547875
 20
784.93330362
 10
-689.13069202
 20
784.35322101
 10
-688.93136294
 20
783.81151406
 10
-688.70811868
 20
783.30754887
 10
-688.46158644
 20
782.84069155
 10
-688.1923934
 20
782.41030822
 10
-687.90116674
 20
782.01576498
 10
-687.58853364
 20
781.65642796
 10
-687.25512128
 20
781.33166325
 10
-686.90155686
 20
781.04083697
 10
-686.52846754
 20
780.78331523
 10
-686.13648051
 20
780.55846415
 10
-685.72622297
 20
780.36564982
 10
-685.29832208
 20
780.20423837
 10
-684.85340503
 20
780.07359591
 10
-684.392099
 20
779.97308854
 10
-683.91503118
 20
779.90208237
 10
-683.42282875
 20
779.85994353
 10
-682.9161189
 20
779.84603811
 10
-682.9161189
 20
779.84603811
 10
-682.9161189
 20
779.84603811
 10
-682.9161189
 20
779.84603811
 10
-682.9161189
 20
779.84603811
 10
-682.9161189
 20
779.84603811
 10
-682.9161189
 20
779.84603811
 10
-682.9161189
 20
779.84603811
 10
-682.9161189
 20
779.84603811
 10
-682.9161189
 20
779.84603811
 10
-682.9161189
 20
779.84603811
 10
-682.9161189
 20
779.84603811
 10
-682.9161189
 20
779.84603811
 10
-682.9161189
 20
779.84603811
 10
-682.9161189
 20
779.84603811
 10
-682.9161189
 20
779.84603811
 10
-682.9161189
 20
779.84603811
 10
-682.9161189
 20
779.84603811
 10
-682.9161189
 20
779.84603811
 10
-682.9161189
 20
779.84603811
 10
-682.9161189
 20
779.84603811
 10
-682.9161189
 20
779.84603811
 10
-682.9161189
 20
779.84603811
 10
-682.9161189
 20
779.84603811
 10
-682.9161189
 20
779.84603811
 10
-682.47171417
 20
779.85711008
 10
-682.03207426
 20
779.8904014
 10
-681.59644966
 20
779.94602521
 10
-681.16409087
 20
780.02409464
 10
-680.73424839
 20
780.12472282
 10
-680.30617272
 20
780.24802288
 10
-679.87911437
 20
780.39410796
 10
-679.45232383
 20
780.56309119
 10
-679.0250516
 20
780.75508569
 10
-678.59654819
 20
780.97020461
 10
-678.1660641
 20
781.20856107
 10
-677.73284982
 20
781.47026821
 10
-677.29615586
 20
781.75543915
 10
-676.85523271
 20
782.06418703
 10
-676.40933088
 20
782.39662498
 10
-675.95770088
 20
782.75286614
 10
-675.49959319
 20
783.13302363
 10
-675.03425832
 20
783.53721059
 10
-674.56094677
 20
783.96554015
 10
-674.07890904
 20
784.41812543
 10
-673.58739563
 20
784.89507959
 10
-673.08565705
 20
785.39651573
 10
-672.57294378
 20
785.92254701
 10
-672.04850634
 20
786.47328654
 10
-672.02703629
 20
786.60213235
 10
-671.96507986
 20
786.97394456
 10
-671.86631763
 20
787.56663531
 10
-671.73443018
 20
788.35811675
 10
-671.57309809
 20
789.32630102
 10
-671.38600193
 20
790.44910026
 10
-671.1768223
 20
791.70442663
 10
-670.94923977
 20
793.07019227
 10
-670.70693491
 20
794.52430933
 10
-670.45358832
 20
796.04468994
 10
-670.19288056
 20
797.60924627
 10
-669.92849223
 20
799.19589045
 10
-669.6641039
 20
800.78253463
 10
-669.40339614
 20
802.34709096
 10
-669.15004955
 20
803.86747157
 10
-668.90774469
 20
805.32158863
 10
-668.68016216
 20
806.68735427
 10
-668.47098253
 20
807.94268064
 10
-668.28388637
 20
809.06547988
 10
-668.12255428
 20
810.03366415
 10
-667.99066683
 20
810.82514559
 10
-667.8919046
 20
811.41783634
 10
-667.82994817
 20
811.78964854
 10
-667.80847812
 20
811.91849436
 10
-667.80847812
 20
811.91849436
 10
-667.80847812
 20
811.91849436
 10
-667.80847812
 20
811.91849436
 10
-667.80847812
 20
811.91849436
 10
-667.80847812
 20
811.91849436
 10
-667.80847812
 20
811.91849436
 10
-667.80847812
 20
811.91849436
 10
-667.80847812
 20
811.91849436
 10
-667.80847812
 20
811.91849436
 10
-667.80847812
 20
811.91849436
 10
-667.80847812
 20
811.91849436
 10
-667.80847812
 20
811.91849436
 10
-667.80847812
 20
811.91849436
 10
-667.80847812
 20
811.91849436
 10
-667.80847812
 20
811.91849436
 10
-667.80847812
 20
811.91849436
 10
-667.80847812
 20
811.91849436
 10
-667.80847812
 20
811.91849436
 10
-667.80847812
 20
811.91849436
 10
-667.80847812
 20
811.91849436
 10
-667.80847812
 20
811.91849436
 10
-667.80847812
 20
811.91849436
 10
-667.80847812
 20
811.91849436
 10
-667.80847812
 20
811.91849436
  0
LWPOLYLINE
  5
196
100
AcDbEntity
  8
DETAIL_1
 62
    42
370
    -3
100
AcDbPolyline
 90
      289
 70
     0
 43
0.0
 10
-674.60431058
 20
828.13910796
 10
-677.00450279
 20
827.90466586
 10
-679.37279032
 20
827.51561519
 10
-681.70221657
 20
826.97333555
 10
-683.98582496
 20
826.27920654
 10
-686.21665887
 20
825.43460777
 10
-688.38776172
 20
824.44091882
 10
-690.49217692
 20
823.29951931
 10
-692.52294785
 20
822.01178881
 10
-694.47311793
 20
820.57910694
 10
-696.33573055
 20
819.00285328
 10
-698.10382913
 20
817.28440745
 10
-699.77045707
 20
815.42514903
 10
-701.32865776
 20
813.42645762
 10
-702.77147462
 20
811.28971283
 10
-704.09195104
 20
809.01629425
 10
-705.28313043
 20
806.60758147
 10
-706.3380562
 20
804.0649541
 10
-707.24977174
 20
801.38979173
 10
-708.01132046
 20
798.58347396
 10
-708.61574576
 20
795.64738039
 10
-709.05609104
 20
792.58289062
 10
-709.32539972
 20
789.39138425
 10
-709.41671519
 20
786.07424087
 10
-709.41671519
 20
786.07424087
 10
-709.41671519
 20
786.07424087
 10
-709.41671519
 20
786.07424087
 10
-709.41671519
 20
786.07424087
 10
-709.41671519
 20
786.07424087
 10
-709.41671519
 20
786.07424087
 10
-709.41671519
 20
786.07424087
 10
-709.41671519
 20
786.07424087
 10
-709.41671519
 20
786.07424087
 10
-709.41671519
 20
786.07424087
 10
-709.41671519
 20
786.07424087
 10
-709.41671519
 20
786.07424087
 10
-709.41671519
 20
786.07424087
 10
-709.41671519
 20
786.07424087
 10
-709.41671519
 20
786.07424087
 10
-709.41671519
 20
786.07424087
 10
-709.41671519
 20
786.07424087
 10
-709.41671519
 20
786.07424087
 10
-709.41671519
 20
786.07424087
 10
-709.41671519
 20
786.07424087
 10
-709.41671519
 20
786.07424087
 10
-709.41671519
 20
786.07424087
 10
-709.41671519
 20
786.07424087
 10
-709.41671519
 20
786.07424087
 10
-709.41663015
 20
785.99925113
 10
-709.41637774
 20
785.92442496
 10
-709.41596205
 20
785.84975799
 10
-709.41538715
 20
785.77524586
 10
-709.41465714
 20
785.70088417
 10
-709.41377609
 20
785.62666857
 10
-709.41274809
 20
785.55259467
 10
-709.41157721
 20
785.47865811
 10
-709.41026754
 20
785.4048545
 10
-709.40882316
 20
785.33117948
 10
-709.40724816
 20
785.25762868
 10
-709.40554661
 20
785.18419771
 10
-709.4037226
 20
785.1108822
 10
-709.40178021
 20
785.03767779
 10
-709.39972352
 20
784.96458009
 10
-709.39755662
 20
784.89158474
 10
-709.39528358
 20
784.81868736
 10
-709.39290849
 20
784.74588357
 10
-709.39043543
 20
784.67316901
 10
-709.38786848
 20
784.60053929
 10
-709.38521172
 20
784.52799005
 10
-709.38246924
 20
784.45551692
 10
-709.37964512
 20
784.38311551
 10
-709.37674344
 20
784.31078145
 10
-709.37674344
 20
784.31078145
 10
-709.37674344
 20
784.31078145
 10
-709.37674344
 20
784.31078145
 10
-709.37674344
 20
784.31078145
 10
-709.37674344
 20
784.31078145
 10
-709.37674344
 20
784.31078145
 10
-709.37674344
 20
784.31078145
 10
-709.37674344
 20
784.31078145
 10
-709.37674344
 20
784.31078145
 10
-709.37674344
 20
784.31078145
 10
-709.37674344
 20
784.31078145
 10
-709.37674344
 20
784.31078145
 10
-709.37674344
 20
784.31078145
 10
-709.37674344
 20
784.31078145
 10
-709.37674344
 20
784.31078145
 10
-709.37674344
 20
784.31078145
 10
-709.37674344
 20
784.31078145
 10
-709.37674344
 20
784.31078145
 10
-709.37674344
 20
784.31078145
 10
-709.37674344
 20
784.31078145
 10
-709.37674344
 20
784.31078145
 10
-709.37674344
 20
784.31078145
 10
-709.37674344
 20
784.31078145
 10
-709.37674344
 20
784.31078145
 10
-710.32454191
 20
783.76651046
 10
-711.29168756
 20
783.22353408
 10
-712.27677541
 20
782.68364375
 10
-713.27840051
 20
782.14863092
 10
-714.29515788
 20
781.62028705
 10
-715.32564257
 20
781.10040359
 10
-716.3684496
 20
780.59077198
 10
-717.42217402
 20
780.09318368
 10
-718.48541085
 20
779.60943014
 10
-719.55675514
 20
779.14130281
 10
-720.63480191
 20
778.69059314
 10
-721.71814621
 20
778.25909259
 10
-722.80538306
 20
777.84859259
 10
-723.8951075
 20
777.46088461
 10
-724.98591457
 20
777.09776009
 10
-726.07639931
 20
776.76101049
 10
-727.16515673
 20
776.45242725
 10
-728.25078189
 20
776.17380183
 10
-729.33186982
 20
775.92692567
 10
-730.40701554
 20
775.71359024
 10
-731.4748141
 20
775.53558697
 10
-732.53386053
 20
775.39470732
 10
-733.58274987
 20
775.29274275
 10
-734.62007715
 20
775.23148469
 10
-734.62007715
 20
775.23148469
 10
-734.62007715
 20
775.23148469
 10
-734.62007715
 20
775.23148469
 10
-734.62007715
 20
775.23148469
 10
-734.62007715
 20
775.23148469
 10
-734.62007715
 20
775.23148469
 10
-734.62007715
 20
775.23148469
 10
-734.62007715
 20
775.23148469
 10
-734.62007715
 20
775.23148469
 10
-734.62007715
 20
775.23148469
 10
-734.62007715
 20
775.23148469
 10
-734.62007715
 20
775.23148469
 10
-734.62007715
 20
775.23148469
 10
-734.62007715
 20
775.23148469
 10
-734.62007715
 20
775.23148469
 10
-734.62007715
 20
775.23148469
 10
-734.62007715
 20
775.23148469
 10
-734.62007715
 20
775.23148469
 10
-734.62007715
 20
775.23148469
 10
-734.62007715
 20
775.23148469
 10
-734.62007715
 20
775.23148469
 10
-734.62007715
 20
775.23148469
 10
-734.62007715
 20
775.23148469
 10
-734.62007715
 20
775.23148469
 10
-734.66962541
 20
775.22966214
 10
-734.71918038
 20
775.22789091
 10
-734.76874176
 20
775.22617332
 10
-734.81830927
 20
775.22451172
 10
-734.86788261
 20
775.22290843
 10
-734.91746148
 20
775.22136579
 10
-734.96704561
 20
775.21988614
 10
-735.01663469
 20
775.21847179
 10
-735.06622844
 20
775.21712509
 10
-735.11582656
 20
775.21584837
 10
-735.16542877
 20
775.21464397
 10
-735.21503476
 20
775.2135142
 10
-735.26464426
 20
775.21246141
 10
-735.31425696
 20
775.21148793
 10
-735.36387258
 20
775.2105961
 10
-735.41349082
 20
775.20978823
 10
-735.46311139
 20
775.20906668
 10
-735.512734
 20
775.20843376
 10
-735.56235837
 20
775.20789181
 10
-735.61198419
 20
775.20744317
 10
-735.66161118
 20
775.20709017
 10
-735.71123904
 20
775.20683514
 10
-735.76086749
 20
775.20668041
 10
-735.81049623
 20
775.20662831
 10
-735.81049623
 20
775.20662831
 10
-735.81049623
 20
775.20662831
 10
-735.81049623
 20
775.20662831
 10
-735.81049623
 20
775.20662831
 10
-735.81049623
 20
775.20662831
 10
-735.81049623
 20
775.20662831
 10
-735.81049623
 20
775.20662831
 10
-735.81049623
 20
775.20662831
 10
-735.81049623
 20
775.20662831
 10
-735.81049623
 20
775.20662831
 10
-735.81049623
 20
775.20662831
 10
-735.81049623
 20
775.20662831
 10
-735.81049623
 20
775.20662831
 10
-735.81049623
 20
775.20662831
 10
-735.81049623
 20
775.20662831
 10
-735.81049623
 20
775.20662831
 10
-735.81049623
 20
775.20662831
 10
-735.81049623
 20
775.20662831
 10
-735.81049623
 20
775.20662831
 10
-735.81049623
 20
775.20662831
 10
-735.81049623
 20
775.20662831
 10
-735.81049623
 20
775.20662831
 10
-735.81049623
 20
775.20662831
 10
-735.81049623
 20
775.20662831
 10
-736.88228595
 20
775.23019835
 10
-737.9110635
 20
775.3012914
 10
-738.89659809
 20
775.42048188
 10
-739.83865896
 20
775.58834419
 10
-740.7370153
 20
775.80545273
 10
-741.59143634
 20
776.07238192
 10
-742.40169129
 20
776.38970616
 10
-743.16754938
 20
776.75799985
 10
-743.88877981
 20
777.17783742
 10
-744.56515181
 20
777.64979325
 10
-745.19643459
 20
778.17444177
 10
-745.78239736
 20
778.75235738
 10
-746.32280935
 20
779.38411448
 10
-746.81743976
 20
780.07028748
 10
-747.26605783
 20
780.81145079
 10
-747.66843275
 20
781.60817882
 10
-748.02433376
 20
782.46104597
 10
-748.33353006
 20
783.37062665
 10
-748.59579088
 20
784.33749528
 10
-748.81088543
 20
785.36222624
 10
-748.97858292
 20
786.44539397
 10
-749.09865257
 20
787.58757285
 10
-749.17086361
 20
788.78933729
 10
-749.19498524
 20
790.05126172
 10
-749.19498524
 20
790.05126172
 10
-749.19498524
 20
790.05126172
 10
-749.19498524
 20
790.05126172
 10
-749.19498524
 20
790.05126172
 10
-749.19498524
 20
790.05126172
 10
-749.19498524
 20
790.05126172
 10
-749.19498524
 20
790.05126172
 10
-749.19498524
 20
790.05126172
 10
-749.19498524
 20
790.05126172
 10
-749.19498524
 20
790.05126172
 10
-749.19498524
 20
790.05126172
 10
-749.19498524
 20
790.05126172
 10
-749.19498524
 20
790.05126172
 10
-749.19498524
 20
790.05126172
 10
-749.19498524
 20
790.05126172
 10
-749.19498524
 20
790.05126172
 10
-749.19498524
 20
790.05126172
 10
-749.19498524
 20
790.05126172
 10
-749.19498524
 20
790.05126172
 10
-749.19498524
 20
790.05126172
 10
-749.19498524
 20
790.05126172
 10
-749.19498524
 20
790.05126172
 10
-749.19498524
 20
790.05126172
 10
-749.19498524
 20
790.05126172
 10
-749.19498524
 20
790.0525935
 10
-749.19498524
 20
790.05643663
 10
-749.19498524
 20
790.06256282
 10
-749.19498524
 20
790.07074375
 10
-749.19498524
 20
790.08075112
 10
-749.19498524
 20
790.09235662
 10
-749.19498524
 20
790.10533196
 10
-749.19498524
 20
790.11944882
 10
-749.19498524
 20
790.1344789
 10
-749.19498524
 20
790.15019389
 10
-749.19498524
 20
790.1663655
 10
-749.19498524
 20
790.18276541
 10
-749.19498524
 20
790.19916532
 10
-749.19498524
 20
790.21533692
 10
-749.19498524
 20
790.23105192
 10
-749.19498524
 20
790.246082
 10
-749.19498524
 20
790.26019886
 10
-749.19498524
 20
790.27317419
 10
-749.19498524
 20
790.2847797
 10
-749.19498524
 20
790.29478707
 10
-749.19498524
 20
790.302968
 10
-749.19498524
 20
790.30909418
 10
-749.19498524
 20
790.31293731
 10
-749.19498524
 20
790.31426909
 10
-749.19498524
 20
790.31426909
 10
-749.19498524
 20
790.31426909
 10
-749.19498524
 20
790.31426909
 10
-749.19498524
 20
790.31426909
 10
-749.19498524
 20
790.31426909
 10
-749.19498524
 20
790.31426909
 10
-749.19498524
 20
790.31426909
 10
-749.19498524
 20
790.31426909
 10
-749.19498524
 20
790.31426909
 10
-749.19498524
 20
790.31426909
 10
-749.19498524
 20
790.31426909
 10
-749.19498524
 20
790.31426909
 10
-749.19498524
 20
790.31426909
 10
-749.19498524
 20
790.31426909
 10
-749.19498524
 20
790.31426909
 10
-749.19498524
 20
790.31426909
 10
-749.19498524
 20
790.31426909
 10
-749.19498524
 20
790.31426909
 10
-749.19498524
 20
790.31426909
 10
-749.19498524
 20
790.31426909
 10
-749.19498524
 20
790.31426909
 10
-749.19498524
 20
790.31426909
 10
-749.19498524
 20
790.31426909
 10
-749.19498524
 20
790.31426909
 10
-749.00777245
 20
790.31426909
  0
LWPOLYLINE
  5
197
100
AcDbEntity
  8
DETAIL_1
 62
    42
370
    -3
100
AcDbPolyline
 90
      121
 70
     0
 43
0.0
 10
-748.00590975
 20
801.84561418
 10
-747.90591745
 20
801.84561418
 10
-747.61736824
 20
801.84561418
 10
-747.15740367
 20
801.84561418
 10
-746.54316526
 20
801.84561418
 10
-745.79179455
 20
801.84561418
 10
-744.92043309
 20
801.84561418
 10
-743.94622241
 20
801.84561418
 10
-742.88630404
 20
801.84561418
 10
-741.75781952
 20
801.84561418
 10
-740.5779104
 20
801.84561418
 10
-739.36371819
 20
801.84561418
 10
-738.13238446
 20
801.84561418
 10
-736.90105072
 20
801.84561418
 10
-735.68685852
 20
801.84561418
 10
-734.50694939
 20
801.84561418
 10
-733.37846487
 20
801.84561418
 10
-732.3185465
 20
801.84561418
 10
-731.34433582
 20
801.84561418
 10
-730.47297436
 20
801.84561418
 10
-729.72160365
 20
801.84561418
 10
-729.10736525
 20
801.84561418
 10
-728.64740067
 20
801.84561418
 10
-728.35885147
 20
801.84561418
 10
-728.25885917
 20
801.84561418
 10
-728.25885917
 20
801.84561418
 10
-728.25885917
 20
801.84561418
 10
-728.25885917
 20
801.84561418
 10
-728.25885917
 20
801.84561418
 10
-728.25885917
 20
801.84561418
 10
-728.25885917
 20
801.84561418
 10
-728.25885917
 20
801.84561418
 10
-728.25885917
 20
801.84561418
 10
-728.25885917
 20
801.84561418
 10
-728.25885917
 20
801.84561418
 10
-728.25885917
 20
801.84561418
 10
-728.25885917
 20
801.84561418
 10
-728.25885917
 20
801.84561418
 10
-728.25885917
 20
801.84561418
 10
-728.25885917
 20
801.84561418
 10
-728.25885917
 20
801.84561418
 10
-728.25885917
 20
801.84561418
 10
-728.25885917
 20
801.84561418
 10
-728.25885917
 20
801.84561418
 10
-728.25885917
 20
801.84561418
 10
-728.25885917
 20
801.84561418
 10
-728.25885917
 20
801.84561418
 10
-728.25885917
 20
801.84561418
 10
-728.25885917
 20
801.84561418
 10
-728.15938196
 20
802.92000735
 10
-728.09333133
 20
803.95645625
 10
-728.06099548
 20
804.9542697
 10
-728.06266264
 20
805.91275652
 10
-728.09862105
 20
806.83122552
 10
-728.16915891
 20
807.70898553
 10
-728.27456447
 20
808.54534535
 10
-728.41512593
 20
809.3396138
 10
-728.59113153
 20
810.0910997
 10
-728.80286948
 20
810.79911187
 10
-729.05062802
 20
811.46295911
 10
-729.33469537
 20
812.08195025
 10
-729.65535975
 20
812.65539411
 10
-730.01290938
 20
813.18259949
 10
-730.4076325
 20
813.66287522
 10
-730.83981731
 20
814.0955301
 10
-731.30975206
 20
814.47987297
 10
-731.81772495
 20
814.81521263
 10
-732.36402423
 20
815.10085789
 10
-732.9489381
 20
815.33611758
 10
-733.5727548
 20
815.52030051
 10
-734.23576254
 20
815.6527155
 10
-734.93824956
 20
815.73267136
 10
-735.68050408
 20
815.75947691
 10
-736.4014554
 20
815.72936852
 10
-737.10695341
 20
815.64007854
 10
-737.79664619
 20
815.49315977
 10
-738.47018179
 20
815.290165
 10
-739.12720829
 20
815.03264703
 10
-739.76737375
 20
814.72215865
 10
-740.39032624
 20
814.36025266
 10
-740.99571382
 20
813.94848185
 10
-741.58318456
 20
813.48839901
 10
-742.15238652
 20
812.98155695
 10
-742.70296778
 20
812.42950846
 10
-743.23457639
 20
811.83380632
 10
-743.74686043
 20
811.19600334
 10
-744.23946795
 20
810.51765231
 10
-744.71204704
 20
809.80030603
 10
-745.16424574
 20
809.04551729
 10
-745.59571214
 20
808.25483888
 10
-746.00609428
 20
807.4298236
 10
-746.39504026
 20
806.57202425
 10
-746.76219811
 20
805.68299362
 10
-747.10721593
 20
804.7642845
 10
-747.42974176
 20
803.81744969
 10
-747.72942368
 20
802.84404199
 10
-748.00590975
 20
801.84561418
 10
-748.00590975
 20
801.84561418
 10
-748.00590975
 20
801.84561418
 10
-748.00590975
 20
801.84561418
 10
-748.00590975
 20
801.84561418
 10
-748.00590975
 20
801.84561418
 10
-748.00590975
 20
801.84561418
 10
-748.00590975
 20
801.84561418
 10
-748.00590975
 20
801.84561418
 10
-748.00590975
 20
801.84561418
 10
-748.00590975
 20
801.84561418
 10
-748.00590975
 20
801.84561418
 10
-748.00590975
 20
801.84561418
 10
-748.00590975
 20
801.84561418
 10
-748.00590975
 20
801.84561418
 10
-748.00590975
 20
801.84561418
 10
-748.00590975
 20
801.84561418
 10
-748.00590975
 20
801.84561418
 10
-748.00590975
 20
801.84561418
 10
-748.00590975
 20
801.84561418
 10
-748.00590975
 20
801.84561418
 10
-748.00590975
 20
801.84561418
 10
-748.00590975
 20
801.84561418
 10
-748.00590975
 20
801.84561418
 10
-748.00590975
 20
801.84561418
  0
LWPOLYLINE
  5
198
100
AcDbEntity
  8
DETAIL_1
 62
    42
370
    -3
100
AcDbPolyline
 90
      936
 70
     0
 43
0.0
 10
-749.00777245
 20
790.31426909
 10
-748.46752985
 20
790.31426909
 10
-747.60635104
 20
790.31426909
 10
-746.45632966
 20
790.31426909
 10
-745.04955931
 20
790.31426909
 10
-743.41813362
 20
790.31426909
 10
-741.59414621
 20
790.31426909
 10
-739.6096907
 20
790.31426909
 10
-737.49686071
 20
790.31426909
 10
-735.28774986
 20
790.31426909
 10
-733.01445177
 20
790.31426909
 10
-730.70906006
 20
790.31426909
 10
-728.40366835
 20
790.31426909
 10
-726.13037026
 20
790.31426909
 10
-723.92125941
 20
790.31426909
 10
-721.80842942
 20
790.31426909
 10
-719.82397391
 20
790.31426909
 10
-717.9999865
 20
790.31426909
 10
-716.36856082
 20
790.31426909
 10
-714.96179047
 20
790.31426909
 10
-713.81176908
 20
790.31426909
 10
-712.95059028
 20
790.31426909
 10
-712.41034767
 20
790.31426909
 10
-712.22313489
 20
790.31426909
 10
-712.22313489
 20
790.31426909
 10
-712.22313489
 20
790.31426909
 10
-712.22313489
 20
790.31426909
 10
-712.22313489
 20
790.31426909
 10
-712.22313489
 20
790.31426909
 10
-712.22313489
 20
790.31426909
 10
-712.22313489
 20
790.31426909
 10
-712.22313489
 20
790.31426909
 10
-712.22313489
 20
790.31426909
 10
-712.22313489
 20
790.31426909
 10
-712.22313489
 20
790.31426909
 10
-712.22313489
 20
790.31426909
 10
-712.22313489
 20
790.31426909
 10
-712.22313489
 20
790.31426909
 10
-712.22313489
 20
790.31426909
 10
-712.22313489
 20
790.31426909
 10
-712.22313489
 20
790.31426909
 10
-712.22313489
 20
790.31426909
 10
-712.22313489
 20
790.31426909
 10
-712.22313489
 20
790.31426909
 10
-712.22313489
 20
790.31426909
 10
-712.22313489
 20
790.31426909
 10
-712.22313489
 20
790.31426909
 10
-712.22313489
 20
790.31426909
 10
-712.10891068
 20
790.75268749
 10
-711.99753824
 20
791.2053353
 10
-711.88919616
 20
791.67129507
 10
-711.78406304
 20
792.14964935
 10
-711.68231746
 20
792.6394807
 10
-711.58413802
 20
793.13987166
 10
-711.48970331
 20
793.64990479
 10
-711.39919191
 20
794.16866265
 10
-711.31278242
 20
794.69522778
 10
-711.23065344
 20
795.22868273
 10
-711.15298354
 20
795.76811006
 10
-711.07995133
 20
796.31259232
 10
-711.01173539
 20
796.86121206
 10
-710.94851431
 20
797.41305184
 10
-710.8904667
 20
797.9671942
 10
-710.83777112
 20
798.5227217
 10
-710.79060619
 20
799.07871689
 10
-710.74915048
 20
799.63426232
 10
-710.7135826
 20
800.18844054
 10
-710.68408113
 20
800.74033411
 10
-710.66082465
 20
801.28902558
 10
-710.64399178
 20
801.8335975
 10
-710.63376108
 20
802.37313243
 10
-710.63031116
 20
802.9067129
 10
-710.63031116
 20
802.9067129
 10
-710.63031116
 20
802.9067129
 10
-710.63031116
 20
802.9067129
 10
-710.63031116
 20
802.9067129
 10
-710.63031116
 20
802.9067129
 10
-710.63031116
 20
802.9067129
 10
-710.63031116
 20
802.9067129
 10
-710.63031116
 20
802.9067129
 10
-710.63031116
 20
802.9067129
 10
-710.63031116
 20
802.9067129
 10
-710.63031116
 20
802.9067129
 10
-710.63031116
 20
802.9067129
 10
-710.63031116
 20
802.9067129
 10
-710.63031116
 20
802.9067129
 10
-710.63031116
 20
802.9067129
 10
-710.63031116
 20
802.9067129
 10
-710.63031116
 20
802.9067129
 10
-710.63031116
 20
802.9067129
 10
-710.63031116
 20
802.9067129
 10
-710.63031116
 20
802.9067129
 10
-710.63031116
 20
802.9067129
 10
-710.63031116
 20
802.9067129
 10
-710.63031116
 20
802.9067129
 10
-710.63031116
 20
802.9067129
 10
-710.67366535
 20
804.83270554
 10
-710.803192
 20
806.70004843
 10
-711.01808723
 20
808.50666947
 10
-711.31754716
 20
810.25049657
 10
-711.70076791
 20
811.92945764
 10
-712.16694561
 20
813.54148059
 10
-712.71527638
 20
815.08449331
 10
-713.34495633
 20
816.55642372
 10
-714.05518159
 20
817.95519973
 10
-714.84514828
 20
819.27874923
 10
-715.71405252
 20
820.52500013
 10
-716.66109044
 20
821.69188035
 10
-717.68545815
 20
822.77731778
 10
-718.78635178
 20
823.77924033
 10
-719.96296744
 20
824.69557591
 10
-721.21450127
 20
825.52425243
 10
-722.54014937
 20
826.26319779
 10
-723.93910788
 20
826.91033989
 10
-725.41057291
 20
827.46360664
 10
-726.95374058
 20
827.92092596
 10
-728.56780702
 20
828.28022573
 10
-730.25196835
 20
828.53943388
 10
-732.00542069
 20
828.69647831
 10
-733.82736015
 20
828.74928691
 10
-733.82736015
 20
828.74928691
 10
-733.82736015
 20
828.74928691
 10
-733.82736015
 20
828.74928691
 10
-733.82736015
 20
828.74928691
 10
-733.82736015
 20
828.74928691
 10
-733.82736015
 20
828.74928691
 10
-733.82736015
 20
828.74928691
 10
-733.82736015
 20
828.74928691
 10
-733.82736015
 20
828.74928691
 10
-733.82736015
 20
828.74928691
 10
-733.82736015
 20
828.74928691
 10
-733.82736015
 20
828.74928691
 10
-733.82736015
 20
828.74928691
 10
-733.82736015
 20
828.74928691
 10
-733.82736015
 20
828.74928691
 10
-733.82736015
 20
828.74928691
 10
-733.82736015
 20
828.74928691
 10
-733.82736015
 20
828.74928691
 10
-733.82736015
 20
828.74928691
 10
-733.82736015
 20
828.74928691
 10
-733.82736015
 20
828.74928691
 10
-733.82736015
 20
828.74928691
 10
-733.82736015
 20
828.74928691
 10
-733.82736015
 20
828.74928691
 10
-736.12700901
 20
828.66300776
 10
-738.38442464
 20
828.40693105
 10
-740.5946619
 20
827.98519792
 10
-742.75277564
 20
827.40194949
 10
-744.85382071
 20
826.66132689
 10
-746.89285195
 20
825.76747123
 10
-748.86492422
 20
824.72452366
 10
-750.76509237
 20
823.53662529
 10
-752.58841124
 20
822.20791725
 10
-754.32993568
 20
820.74254067
 10
-755.98472055
 20
819.14463667
 10
-757.54782069
 20
817.41834639
 10
-759.01429095
 20
815.56781094
 10
-760.37918619
 20
813.59717146
 10
-761.63756124
 20
811.51056906
 10
-762.78447096
 20
809.31214489
 10
-763.8149702
 20
807.00604005
 10
-764.72411381
 20
804.59639568
 10
-765.50695664
 20
802.08735291
 10
-766.15855353
 20
799.48305286
 10
-766.67395934
 20
796.78763666
 10
-767.04822891
 20
794.00524544
 10
-767.2764171
 20
791.14002031
 10
-767.35357875
 20
788.19610241
 10
-767.35357875
 20
788.19610241
 10
-767.35357875
 20
788.19610241
 10
-767.35357875
 20
788.19610241
 10
-767.35357875
 20
788.19610241
 10
-767.35357875
 20
788.19610241
 10
-767.35357875
 20
788.19610241
 10
-767.35357875
 20
788.19610241
 10
-767.35357875
 20
788.19610241
 10
-767.35357875
 20
788.19610241
 10
-767.35357875
 20
788.19610241
 10
-767.35357875
 20
788.19610241
 10
-767.35357875
 20
788.19610241
 10
-767.35357875
 20
788.19610241
 10
-767.35357875
 20
788.19610241
 10
-767.35357875
 20
788.19610241
 10
-767.35357875
 20
788.19610241
 10
-767.35357875
 20
788.19610241
 10
-767.35357875
 20
788.19610241
 10
-767.35357875
 20
788.19610241
 10
-767.35357875
 20
788.19610241
 10
-767.35357875
 20
788.19610241
 10
-767.35357875
 20
788.19610241
 10
-767.35357875
 20
788.19610241
 10
-767.35357875
 20
788.19610241
 10
-767.29203913
 20
785.95974583
 10
-767.10972062
 20
783.82242507
 10
-766.81007374
 20
781.78379594
 10
-766.39654902
 20
779.84351422
 10
-765.87259698
 20
778.0012357
 10
-765.24166816
 20
776.25661619
 10
-764.50721307
 20
774.60931147
 10
-763.67268224
 20
773.05897734
 10
-762.74152619
 20
771.60526958
 10
-761.71719547
 20
770.247844
 10
-760.60314057
 20
768.98635639
 10
-759.40281205
 20
767.82046253
 10
-758.11966041
 20
766.74981822
 10
-756.75713618
 20
765.77407926
 10
-755.3186899
 20
764.89290143
 10
-753.80777208
 20
764.10594054
 10
-752.22783326
 20
763.41285237
 10
-750.58232395
 20
762.81329272
 10
-748.87469468
 20
762.30691737
 10
-747.10839599
 20
761.89338213
 10
-745.28687838
 20
761.57234278
 10
-743.4135924
 20
761.34345513
 10
-741.49198856
 20
761.20637495
 10
-739.52551739
 20
761.16075805
 10
-739.52551739
 20
761.16075805
 10
-739.52551739
 20
761.16075805
 10
-739.52551739
 20
761.16075805
 10
-739.52551739
 20
761.16075805
 10
-739.52551739
 20
761.16075805
 10
-739.52551739
 20
761.16075805
 10
-739.52551739
 20
761.16075805
 10
-739.52551739
 20
761.16075805
 10
-739.52551739
 20
761.16075805
 10
-739.52551739
 20
761.16075805
 10
-739.52551739
 20
761.16075805
 10
-739.52551739
 20
761.16075805
 10
-739.52551739
 20
761.16075805
 10
-739.52551739
 20
761.16075805
 10
-739.52551739
 20
761.16075805
 10
-739.52551739
 20
761.16075805
 10
-739.52551739
 20
761.16075805
 10
-739.52551739
 20
761.16075805
 10
-739.52551739
 20
761.16075805
 10
-739.52551739
 20
761.16075805
 10
-739.52551739
 20
761.16075805
 10
-739.52551739
 20
761.16075805
 10
-739.52551739
 20
761.16075805
 10
-739.52551739
 20
761.16075805
 10
-739.48992341
 20
761.16080251
 10
-739.45443105
 20
761.16093183
 10
-739.41903344
 20
761.16113987
 10
-739.38372375
 20
761.16142051
 10
-739.34849511
 20
761.16176763
 10
-739.31334069
 20
761.16217511
 10
-739.27825361
 20
761.16263683
 10
-739.24322704
 20
761.16314665
 10
-739.20825412
 20
761.16369846
 10
-739.173328
 20
761.16428613
 10
-739.13844182
 20
761.16490355
 10
-739.10358873
 20
761.16554458
 10
-739.06876189
 20
761.16620311
 10
-739.03395444
 20
761.16687301
 10
-738.99915953
 20
761.16754815
 10
-738.9643703
 20
761.16822243
 10
-738.92957991
 20
761.1688897
 10
-738.89478149
 20
761.16954385
 10
-738.85996821
 20
761.17017876
 10
-738.82513321
 20
761.17078831
 10
-738.79026963
 20
761.17136636
 10
-738.75537062
 20
761.1719068
 10
-738.72042933
 20
761.1724035
 10
-738.68543892
 20
761.17285034
 10
-738.68543892
 20
761.17285034
 10
-738.68543892
 20
761.17285034
 10
-738.68543892
 20
761.17285034
 10
-738.68543892
 20
761.17285034
 10
-738.68543892
 20
761.17285034
 10
-738.68543892
 20
761.17285034
 10
-738.68543892
 20
761.17285034
 10
-738.68543892
 20
761.17285034
 10
-738.68543892
 20
761.17285034
 10
-738.68543892
 20
761.17285034
 10
-738.68543892
 20
761.17285034
 10
-738.68543892
 20
761.17285034
 10
-738.68543892
 20
761.17285034
 10
-738.68543892
 20
761.17285034
 10
-738.68543892
 20
761.17285034
 10
-738.68543892
 20
761.17285034
 10
-738.68543892
 20
761.17285034
 10
-738.68543892
 20
761.17285034
 10
-738.68543892
 20
761.17285034
 10
-738.68543892
 20
761.17285034
 10
-738.68543892
 20
761.17285034
 10
-738.68543892
 20
761.17285034
 10
-738.68543892
 20
761.17285034
 10
-738.68543892
 20
761.17285034
 10
-738.66111056
 20
761.17112595
 10
-738.63674532
 20
761.16948204
 10
-738.61234129
 20
761.1679221
 10
-738.5878966
 20
761.16644964
 10
-738.56340933
 20
761.16506814
 10
-738.5388776
 20
761.16378112
 10
-738.5142995
 20
761.16259207
 10
-738.48967315
 20
761.16150449
 10
-738.46499665
 20
761.16052187
 10
-738.4402681
 20
761.15964772
 10
-738.41548561
 20
761.15888554
 10
-738.39064729
 20
761.15823882
 10
-738.36575123
 20
761.15771106
 10
-738.34079554
 20
761.15730577
 10
-738.31577833
 20
761.15702644
 10
-738.2906977
 20
761.15687657
 10
-738.26555176
 20
761.15685966
 10
-738.24033861
 20
761.15697921
 10
-738.21505636
 20
761.15723871
 10
-738.18970311
 20
761.15764167
 10
-738.16427696
 20
761.15819158
 10
-738.13877602
 20
761.15889195
 10
-738.1131984
 20
761.15974627
 10
-738.0875422
 20
761.16075805
 10
-738.0875422
 20
761.16075805
 10
-738.0875422
 20
761.16075805
 10
-738.0875422
 20
761.16075805
 10
-738.0875422
 20
761.16075805
 10
-738.0875422
 20
761.16075805
 10
-738.0875422
 20
761.16075805
 10
-738.0875422
 20
761.16075805
 10
-738.0875422
 20
761.16075805
 10
-738.0875422
 20
761.16075805
 10
-738.0875422
 20
761.16075805
 10
-738.0875422
 20
761.16075805
 10
-738.0875422
 20
761.16075805
 10
-738.0875422
 20
761.16075805
 10
-738.0875422
 20
761.16075805
 10
-738.0875422
 20
761.16075805
 10
-738.0875422
 20
761.16075805
 10
-738.0875422
 20
761.16075805
 10
-738.0875422
 20
761.16075805
 10
-738.0875422
 20
761.16075805
 10
-738.0875422
 20
761.16075805
 10
-738.0875422
 20
761.16075805
 10
-738.0875422
 20
761.16075805
 10
-738.0875422
 20
761.16075805
 10
-738.0875422
 20
761.16075805
 10
-738.06294287
 20
761.16181361
 10
-738.03835331
 20
761.16296043
 10
-738.01377278
 20
761.16419181
 10
-737.98920057
 20
761.16550104
 10
-737.96463594
 20
761.16688141
 10
-737.94007816
 20
761.16832623
 10
-737.9155265
 20
761.16982877
 10
-737.89098024
 20
761.17138235
 10
-737.86643864
 20
761.17298024
 10
-737.84190098
 20
761.17461574
 10
-737.81736652
 20
761.17628216
 10
-737.79283454
 20
761.17797277
 10
-737.76830432
 20
761.17968088
 10
-737.74377511
 20
761.18139978
 10
-737.7192462
 20
761.18312275
 10
-737.69471684
 20
761.18484311
 10
-737.67018633
 20
761.18655413
 10
-737.64565391
 20
761.18824912
 10
-737.62111887
 20
761.18992136
 10
-737.59658048
 20
761.19156416
 10
-737.57203801
 20
761.1931708
 10
-737.54749073
 20
761.19473458
 10
-737.5229379
 20
761.19624879
 10
-737.49837881
 20
761.19770672
 10
-737.49837881
 20
761.19770672
 10
-737.49837881
 20
761.19770672
 10
-737.49837881
 20
761.19770672
 10
-737.49837881
 20
761.19770672
 10
-737.49837881
 20
761.19770672
 10
-737.49837881
 20
761.19770672
 10
-737.49837881
 20
761.19770672
 10
-737.49837881
 20
761.19770672
 10
-737.49837881
 20
761.19770672
 10
-737.49837881
 20
761.19770672
 10
-737.49837881
 20
761.19770672
 10
-737.49837881
 20
761.19770672
 10
-737.49837881
 20
761.19770672
 10
-737.49837881
 20
761.19770672
 10
-737.49837881
 20
761.19770672
 10
-737.49837881
 20
761.19770672
 10
-737.49837881
 20
761.19770672
 10
-737.49837881
 20
761.19770672
 10
-737.49837881
 20
761.19770672
 10
-737.49837881
 20
761.19770672
 10
-737.49837881
 20
761.19770672
 10
-737.49837881
 20
761.19770672
 10
-737.49837881
 20
761.19770672
 10
-737.49837881
 20
761.19770672
 10
-736.80865245
 20
761.22559171
 10
-736.12802855
 20
761.26168344
 10
-735.45619046
 20
761.30593117
 10
-734.79282153
 20
761.35828416
 10
-734.13760509
 20
761.41869169
 10
-733.4902245
 20
761.48710301
 10
-732.85036311
 20
761.56346739
 10
-732.21770426
 20
761.6477341
 10
-731.59193129
 20
761.7398524
 10
-730.97272757
 20
761.83977156
 10
-730.35977643
 20
761.94744085
 10
-729.75276121
 20
762.06280953
 10
-729.15136528
 20
762.18582686
 10
-728.55527197
 20
762.31644211
 10
-727.96416463
 20
762.45460455
 10
-727.37772661
 20
762.60026344
 10
-726.79564125
 20
762.75336804
 10
-726.21759191
 20
762.91386763
 10
-725.64326193
 20
763.08171147
 10
-725.07233466
 20
763.25684883
 10
-724.50449343
 20
763.43922896
 10
-723.93942161
 20
763.62880114
 10
-723.37680254
 20
763.82551463
 10
-722.81631957
 20
764.0293187
 10
-722.81631957
 20
764.0293187
 10
-722.81631957
 20
764.0293187
 10
-722.81631957
 20
764.0293187
 10
-722.81631957
 20
764.0293187
 10
-722.81631957
 20
764.0293187
 10
-722.81631957
 20
764.0293187
 10
-722.81631957
 20
764.0293187
 10
-722.81631957
 20
764.0293187
 10
-722.81631957
 20
764.0293187
 10
-722.81631957
 20
764.0293187
 10
-722.81631957
 20
764.0293187
 10
-722.81631957
 20
764.0293187
 10
-722.81631957
 20
764.0293187
 10
-722.81631957
 20
764.0293187
 10
-722.81631957
 20
764.0293187
 10
-722.81631957
 20
764.0293187
 10
-722.81631957
 20
764.0293187
 10
-722.81631957
 20
764.0293187
 10
-722.81631957
 20
764.0293187
 10
-722.81631957
 20
764.0293187
 10
-722.81631957
 20
764.0293187
 10
-722.81631957
 20
764.0293187
 10
-722.81631957
 20
764.0293187
 10
-722.81631957
 20
764.0293187
 10
-722.02116819
 20
764.28664566
 10
-721.23216619
 20
764.55147141
 10
-720.44959171
 20
764.82336616
 10
-719.67372292
 20
765.10190012
 10
-718.904838
 20
765.38664351
 10
-718.1432151
 20
765.67716655
 10
-717.38913239
 20
765.97303945
 10
-716.64286803
 20
766.27383242
 10
-715.90470019
 20
766.57911569
 10
-715.17490703
 20
766.88845945
 10
-714.45376672
 20
767.20143394
 10
-713.74155742
 20
767.51760937
 10
-713.0385573
 20
767.83655594
 10
-712.34504452
 20
768.15784388
 10
-711.66129724
 20
768.4810434
 10
-710.98759364
 20
768.80572472
 10
-710.32421187
 20
769.13145805
 10
-709.67143011
 20
769.4578136
 10
-709.02952651
 20
769.7843616
 10
-708.39877924
 20
770.11067225
 10
-707.77946646
 20
770.43631577
 10
-707.17186634
 20
770.76086238
 10
-706.57625705
 20
771.08388229
 10
-705.99291675
 20
771.40494571
 10
-705.99291675
 20
771.40494571
 10
-705.99291675
 20
771.40494571
 10
-705.99291675
 20
771.40494571
 10
-705.99291675
 20
771.40494571
 10
-705.99291675
 20
771.40494571
 10
-705.99291675
 20
771.40494571
 10
-705.99291675
 20
771.40494571
 10
-705.99291675
 20
771.40494571
 10
-705.99291675
 20
771.40494571
 10
-705.99291675
 20
771.40494571
 10
-705.99291675
 20
771.40494571
 10
-705.99291675
 20
771.40494571
 10
-705.99291675
 20
771.40494571
 10
-705.99291675
 20
771.40494571
 10
-705.99291675
 20
771.40494571
 10
-705.99291675
 20
771.40494571
 10
-705.99291675
 20
771.40494571
 10
-705.99291675
 20
771.40494571
 10
-705.99291675
 20
771.40494571
 10
-705.99291675
 20
771.40494571
 10
-705.99291675
 20
771.40494571
 10
-705.99291675
 20
771.40494571
 10
-705.99291675
 20
771.40494571
 10
-705.99291675
 20
771.40494571
 10
-705.59054612
 20
770.7623052
 10
-705.16769394
 20
770.14579759
 10
-704.72464828
 20
769.55553077
 10
-704.26169723
 20
768.99161262
 10
-703.77912885
 20
768.45415104
 10
-703.27723124
 20
767.94325389
 10
-702.75629246
 20
767.45902906
 10
-702.21660059
 20
767.00158444
 10
-701.65844372
 20
766.57102791
 10
-701.08210993
 20
766.16746736
 10
-700.48788728
 20
765.79101067
 10
-699.87606386
 20
765.44176571
 10
-699.24692775
 20
765.11984038
 10
-698.60076702
 20
764.82534256
 10
-697.93786976
 20
764.55838014
 10
-697.25852404
 20
764.31906099
 10
-696.56301794
 20
764.107493
 10
-695.85163954
 20
763.92378405
 10
-695.12467691
 20
763.76804203
 10
-694.38241815
 20
763.64037481
 10
-693.62515131
 20
763.5408903
 10
-692.85316449
 20
763.46969636
 10
-692.06674576
 20
763.42690088
 10
-691.2661832
 20
763.41261175
 10
-691.2661832
 20
763.41261175
 10
-691.2661832
 20
763.41261175
 10
-691.2661832
 20
763.41261175
 10
-691.2661832
 20
763.41261175
 10
-691.2661832
 20
763.41261175
 10
-691.2661832
 20
763.41261175
 10
-691.2661832
 20
763.41261175
 10
-691.2661832
 20
763.41261175
 10
-691.2661832
 20
763.41261175
 10
-691.2661832
 20
763.41261175
 10
-691.2661832
 20
763.41261175
 10
-691.2661832
 20
763.41261175
 10
-691.2661832
 20
763.41261175
 10
-691.2661832
 20
763.41261175
 10
-691.2661832
 20
763.41261175
 10
-691.2661832
 20
763.41261175
 10
-691.2661832
 20
763.41261175
 10
-691.2661832
 20
763.41261175
 10
-691.2661832
 20
763.41261175
 10
-691.2661832
 20
763.41261175
 10
-691.2661832
 20
763.41261175
 10
-691.2661832
 20
763.41261175
 10
-691.2661832
 20
763.41261175
 10
-691.2661832
 20
763.41261175
 10
-690.41286906
 20
763.43377768
 10
-689.57552869
 20
763.49635546
 10
-688.75358943
 20
763.59896506
 10
-687.94647863
 20
763.74022643
 10
-687.15362362
 20
763.91875954
 10
-686.37445175
 20
764.13318436
 10
-685.60839036
 20
764.38212084
 10
-684.8548668
 20
764.66418897
 10
-684.1133084
 20
764.97800869
 10
-683.38314251
 20
765.32219998
 10
-682.66379647
 20
765.69538279
 10
-681.95469762
 20
766.0961771
 10
-681.2552733
 20
766.52320287
 10
-680.56495087
 20
766.97508007
 10
-679.88315765
 20
767.45042865
 10
-679.20932099
 20
767.94786858
 10
-678.54286823
 20
768.46601983
 10
-677.88322672
 20
769.00350237
 10
-677.2298238
 20
769.55893615
 10
-676.58208681
 20
770.13094114
 10
-675.93944308
 20
770.71813731
 10
-675.30131998
 20
771.31914462
 10
-674.66714483
 20
771.93258304
 10
-674.03634498
 20
772.55707253
 10
-674.03634498
 20
772.55707253
 10
-674.03634498
 20
772.55707253
 10
-674.03634498
 20
772.55707253
 10
-674.03634498
 20
772.55707253
 10
-674.03634498
 20
772.55707253
 10
-674.03634498
 20
772.55707253
 10
-674.03634498
 20
772.55707253
 10
-674.03634498
 20
772.55707253
 10
-674.03634498
 20
772.55707253
 10
-674.03634498
 20
772.55707253
 10
-674.03634498
 20
772.55707253
 10
-674.03634498
 20
772.55707253
 10
-674.03634498
 20
772.55707253
 10
-674.03634498
 20
772.55707253
 10
-674.03634498
 20
772.55707253
 10
-674.03634498
 20
772.55707253
 10
-674.03634498
 20
772.55707253
 10
-674.03634498
 20
772.55707253
 10
-674.03634498
 20
772.55707253
 10
-674.03634498
 20
772.55707253
 10
-674.03634498
 20
772.55707253
 10
-674.03634498
 20
772.55707253
 10
-674.03634498
 20
772.55707253
 10
-674.03634498
 20
772.55707253
 10
-674.04238986
 20
772.52754547
 10
-674.05983366
 20
772.44233881
 10
-674.08764013
 20
772.30651434
 10
-674.12477298
 20
772.12513383
 10
-674.17019596
 20
771.90325907
 10
-674.2228728
 20
771.64595183
 10
-674.28176723
 20
771.35827391
 10
-674.34584299
 20
771.04528707
 10
-674.41406381
 20
770.71205312
 10
-674.48539343
 20
770.36363381
 10
-674.55879558
 20
770.00509095
 10
-674.633234
 20
769.6414863
 10
-674.70767242
 20
769.27788165
 10
-674.78107457
 20
768.91933878
 10
-674.85240419
 20
768.57091948
 10
-674.92062501
 20
768.23768552
 10
-674.98470077
 20
767.92469869
 10
-675.0435952
 20
767.63702076
 10
-675.09627204
 20
767.37971353
 10
-675.14169502
 20
767.15783876
 10
-675.17882787
 20
766.97645826
 10
-675.20663434
 20
766.84063378
 10
-675.22407814
 20
766.75542712
 10
-675.23012302
 20
766.72590006
 10
-675.23012302
 20
766.72590006
 10
-675.23012302
 20
766.72590006
 10
-675.23012302
 20
766.72590006
 10
-675.23012302
 20
766.72590006
 10
-675.23012302
 20
766.72590006
 10
-675.23012302
 20
766.72590006
 10
-675.23012302
 20
766.72590006
 10
-675.23012302
 20
766.72590006
 10
-675.23012302
 20
766.72590006
 10
-675.23012302
 20
766.72590006
 10
-675.23012302
 20
766.72590006
 10
-675.23012302
 20
766.72590006
 10
-675.23012302
 20
766.72590006
 10
-675.23012302
 20
766.72590006
 10
-675.23012302
 20
766.72590006
 10
-675.23012302
 20
766.72590006
 10
-675.23012302
 20
766.72590006
 10
-675.23012302
 20
766.72590006
 10
-675.23012302
 20
766.72590006
 10
-675.23012302
 20
766.72590006
 10
-675.23012302
 20
766.72590006
 10
-675.23012302
 20
766.72590006
 10
-675.23012302
 20
766.72590006
 10
-675.23012302
 20
766.72590006
 10
-675.44415521
 20
765.65599318
 10
-675.69033131
 20
764.63288678
 10
-675.96893051
 20
763.65646774
 10
-676.280232
 20
762.72662292
 10
-676.62451497
 20
761.8432392
 10
-677.00205859
 20
761.00620343
 10
-677.41314206
 20
760.21540248
 10
-677.85804455
 20
759.47072324
 10
-678.33704526
 20
758.77205255
 10
-678.85042337
 20
758.1192773
 10
-679.39845806
 20
757.51228434
 10
-679.98142852
 20
756.95096055
 10
-680.59961394
 20
756.4351928
 10
-681.25329349
 20
755.96486795
 10
-681.94274638
 20
755.53987287
 10
-682.66825177
 20
755.16009443
 10
-683.43008886
 20
754.82541949
 10
-684.22853683
 20
754.53573494
 10
-685.06387486
 20
754.29092762
 10
-685.93638215
 20
754.09088441
 10
-686.84633788
 20
753.93549219
 10
-687.79402122
 20
753.82463781
 10
-688.77971138
 20
753.75820815
 10
-689.80368753
 20
753.73609007
 10
-689.80368753
 20
753.73609007
 10
-689.80368753
 20
753.73609007
 10
-689.80368753
 20
753.73609007
 10
-689.80368753
 20
753.73609007
 10
-689.80368753
 20
753.73609007
 10
-689.80368753
 20
753.73609007
 10
-689.80368753
 20
753.73609007
 10
-689.80368753
 20
753.73609007
 10
-689.80368753
 20
753.73609007
 10
-689.80368753
 20
753.73609007
 10
-689.80368753
 20
753.73609007
 10
-689.80368753
 20
753.73609007
 10
-689.80368753
 20
753.73609007
 10
-689.80368753
 20
753.73609007
 10
-689.80368753
 20
753.73609007
 10
-689.80368753
 20
753.73609007
 10
-689.80368753
 20
753.73609007
 10
-689.80368753
 20
753.73609007
 10
-689.80368753
 20
753.73609007
 10
-689.80368753
 20
753.73609007
 10
-689.80368753
 20
753.73609007
 10
-689.80368753
 20
753.73609007
 10
-689.80368753
 20
753.73609007
 10
-689.80368753
 20
753.73609007
 10
-690.72780297
 20
753.74707922
 10
-691.64384129
 20
753.7797769
 10
-692.55209479
 20
753.83377837
 10
-693.45285577
 20
753.90867894
 10
-694.34641654
 20
754.00407389
 10
-695.23306941
 20
754.11955851
 10
-696.11310668
 20
754.25472811
 10
-696.98682066
 20
754.40917795
 10
-697.85450366
 20
754.58250335
 10
-698.71644798
 20
754.77429958
 10
-699.57294592
 20
754.98416194
 10
-700.4242898
 20
755.21168572
 10
-701.27077192
 20
755.45646622
 10
-702.11268459
 20
755.71809871
 10
-702.95032011
 20
755.99617849
 10
-703.78397079
 20
756.29030085
 10
-704.61392893
 20
756.60006109
 10
-705.44048685
 20
756.92505449
 10
-706.26393684
 20
757.26487635
 10
-707.08457122
 20
757.61912195
 10
-707.90268228
 20
757.98738659
 10
-708.71856235
 20
758.36926555
 10
-709.53250371
 20
758.76435413
 10
-710.34479869
 20
759.17224762
 10
-710.34479869
 20
759.17224762
 10
-710.34479869
 20
759.17224762
 10
-710.34479869
 20
759.17224762
 10
-710.34479869
 20
759.17224762
 10
-710.34479869
 20
759.17224762
 10
-710.34479869
 20
759.17224762
 10
-710.34479869
 20
759.17224762
 10
-710.34479869
 20
759.17224762
 10
-710.34479869
 20
759.17224762
 10
-710.34479869
 20
759.17224762
 10
-710.34479869
 20
759.17224762
 10
-710.34479869
 20
759.17224762
 10
-710.34479869
 20
759.17224762
 10
-710.34479869
 20
759.17224762
 10
-710.34479869
 20
759.17224762
 10
-710.34479869
 20
759.17224762
 10
-710.34479869
 20
759.17224762
 10
-710.34479869
 20
759.17224762
 10
-710.34479869
 20
759.17224762
 10
-710.34479869
 20
759.17224762
 10
-710.34479869
 20
759.17224762
 10
-710.34479869
 20
759.17224762
 10
-710.34479869
 20
759.17224762
 10
-710.34479869
 20
759.17224762
 10
-710.36963305
 20
759.09641955
 10
-710.44129794
 20
758.87760139
 10
-710.55553602
 20
758.52879225
 10
-710.70808999
 20
758.06299122
 10
-710.89470251
 20
757.4931974
 10
-711.11111627
 20
756.83240989
 10
-711.35307396
 20
756.0936278
 10
-711.61631824
 20
755.28985021
 10
-711.8965918
 20
754.43407622
 10
-712.18963732
 20
753.53930494
 10
-712.49119748
 20
752.61853547
 10
-712.79701497
 20
751.68476689
 10
-713.10283245
 20
750.75099832
 10
-713.40439261
 20
749.83022884
 10
-713.69743813
 20
748.93545757
 10
-713.97771169
 20
748.07968358
 10
-714.24095597
 20
747.27590599
 10
-714.48291366
 20
746.53712389
 10
-714.69932742
 20
745.87633639
 10
-714.88593994
 20
745.30654257
 10
-715.03849391
 20
744.84074154
 10
-715.15273199
 20
744.4919324
 10
-715.22439688
 20
744.27311424
 10
-715.24923124
 20
744.19728617
 10
-715.24923124
 20
744.19728617
 10
-715.24923124
 20
744.19728617
 10
-715.24923124
 20
744.19728617
 10
-715.24923124
 20
744.19728617
 10
-715.24923124
 20
744.19728617
 10
-715.24923124
 20
744.19728617
 10
-715.24923124
 20
744.19728617
 10
-715.24923124
 20
744.19728617
 10
-715.24923124
 20
744.19728617
 10
-715.24923124
 20
744.19728617
 10
-715.24923124
 20
744.19728617
 10
-715.24923124
 20
744.19728617
 10
-715.24923124
 20
744.19728617
 10
-715.24923124
 20
744.19728617
 10
-715.24923124
 20
744.19728617
 10
-715.24923124
 20
744.19728617
 10
-715.24923124
 20
744.19728617
 10
-715.24923124
 20
744.19728617
 10
-715.24923124
 20
744.19728617
 10
-715.24923124
 20
744.19728617
 10
-715.24923124
 20
744.19728617
 10
-715.24923124
 20
744.19728617
 10
-715.24923124
 20
744.19728617
 10
-715.24923124
 20
744.19728617
 10
-714.39062444
 20
743.78738566
 10
-713.50365329
 20
743.38650538
 10
-712.58901204
 20
742.99539411
 10
-711.64739493
 20
742.61480061
 10
-710.67949622
 20
742.24547366
 10
-709.68601014
 20
741.88816203
 10
-708.66763094
 20
741.54361448
 10
-707.62505286
 20
741.21257979
 10
-706.55897016
 20
740.89580673
 10
-705.47007708
 20
740.59404407
 10
-704.35906786
 20
740.30804058
 10
-703.22663675
 20
740.03854502
 10
-702.07347799
 20
739.78630618
 10
-700.90028583
 20
739.55207282
 10
-699.70775452
 20
739.3365937
 10
-698.49657829
 20
739.14061761
 10
-697.26745141
 20
738.96489331
 10
-696.0210681
 20
738.81016958
 10
-694.75812262
 20
738.67719517
 10
-693.47930922
 20
738.56671887
 10
-692.18532213
 20
738.47948945
 10
-690.8768556
 20
738.41625566
 10
-689.55460389
 20
738.3777663
 10
-688.21926123
 20
738.36477011
 10
-688.21926123
 20
738.36477011
 10
-688.21926123
 20
738.36477011
 10
-688.21926123
 20
738.36477011
 10
-688.21926123
 20
738.36477011
 10
-688.21926123
 20
738.36477011
 10
-688.21926123
 20
738.36477011
 10
-688.21926123
 20
738.36477011
 10
-688.21926123
 20
738.36477011
 10
-688.21926123
 20
738.36477011
 10
-688.21926123
 20
738.36477011
 10
-688.21926123
 20
738.36477011
 10
-688.21926123
 20
738.36477011
 10
-688.21926123
 20
738.36477011
 10
-688.21926123
 20
738.36477011
 10
-688.21926123
 20
738.36477011
 10
-688.21926123
 20
738.36477011
 10
-688.21926123
 20
738.36477011
 10
-688.21926123
 20
738.36477011
 10
-688.21926123
 20
738.36477011
 10
-688.21926123
 20
738.36477011
 10
-688.21926123
 20
738.36477011
 10
-688.21926123
 20
738.36477011
 10
-688.21926123
 20
738.36477011
 10
-688.21926123
 20
738.36477011
 10
-686.2457888
 20
738.3979762
 10
-684.30291567
 20
738.50062258
 10
-682.39369405
 20
738.67725145
 10
-680.52117617
 20
738.932405
 10
-678.68841428
 20
739.27062541
 10
-676.8984606
 20
739.69645489
 10
-675.15436736
 20
740.21443562
 10
-673.45918679
 20
740.82910979
 10
-671.81597113
 20
741.54501959
 10
-670.2277726
 20
742.36670722
 10
-668.69764343
 20
743.29871486
 10
-667.22863587
 20
744.34558471
 10
-665.82380213
 20
745.51185895
 10
-664.48619444
 20
746.80207978
 10
-663.21886505
 20
748.2207894
 10
-662.02486618
 20
749.77252998
 10
-660.90725006
 20
751.46184372
 10
-659.86906893
 20
753.29327281
 10
-658.913375
 20
755.27135945
 10
-658.04322053
 20
757.40064581
 10
-657.26165772
 20
759.68567411
 10
-656.57173883
 20
762.13098651
 10
-655.97651607
 20
764.74112523
 10
-655.47904168
 20
767.52063244
 10
-655.47904168
 20
767.52063244
 10
-655.47904168
 20
767.52063244
 10
-655.47904168
 20
767.52063244
 10
-655.47904168
 20
767.52063244
 10
-655.47904168
 20
767.52063244
 10
-655.47904168
 20
767.52063244
 10
-655.47904168
 20
767.52063244
 10
-655.47904168
 20
767.52063244
 10
-655.47904168
 20
767.52063244
 10
-655.47904168
 20
767.52063244
 10
-655.47904168
 20
767.52063244
 10
-655.47904168
 20
767.52063244
 10
-655.47904168
 20
767.52063244
 10
-655.47904168
 20
767.52063244
 10
-655.47904168
 20
767.52063244
 10
-655.47904168
 20
767.52063244
 10
-655.47904168
 20
767.52063244
 10
-655.47904168
 20
767.52063244
 10
-655.47904168
 20
767.52063244
 10
-655.47904168
 20
767.52063244
 10
-655.47904168
 20
767.52063244
 10
-655.47904168
 20
767.52063244
 10
-655.47904168
 20
767.52063244
 10
-655.47904168
 20
767.52063244
 10
-655.43478001
 20
767.80450042
 10
-655.30705346
 20
768.62366231
 10
-655.10344976
 20
769.92945502
 10
-654.83155661
 20
771.67321547
 10
-654.49896174
 20
773.80628059
 10
-654.11325286
 20
776.27998728
 10
-653.68201769
 20
779.04567246
 10
-653.21284394
 20
782.05467306
 10
-652.71331932
 20
785.25832598
 10
-652.19103156
 20
788.60796816
 10
-651.65356837
 20
792.0549365
 10
-651.10851746
 20
795.55056792
 10
-650.56346655
 20
799.04619934
 10
-650.02600336
 20
802.49316768
 10
-649.50371559
 20
805.84280985
 10
-649.00419098
 20
809.04646278
 10
-648.53501723
 20
812.05546337
 10
-648.10378205
 20
814.82114856
 10
-647.71807317
 20
817.29485525
 10
-647.3854783
 20
819.42792036
 10
-647.11358516
 20
821.17168081
 10
-646.90998146
 20
822.47747352
 10
-646.78225491
 20
823.29663541
 10
-646.73799323
 20
823.58050339
 10
-646.73799323
 20
823.58050339
 10
-646.73799323
 20
823.58050339
 10
-646.73799323
 20
823.58050339
 10
-646.73799323
 20
823.58050339
 10
-646.73799323
 20
823.58050339
 10
-646.73799323
 20
823.58050339
 10
-646.73799323
 20
823.58050339
 10
-646.73799323
 20
823.58050339
 10
-646.73799323
 20
823.58050339
 10
-646.73799323
 20
823.58050339
 10
-646.73799323
 20
823.58050339
 10
-646.73799323
 20
823.58050339
 10
-646.73799323
 20
823.58050339
 10
-646.73799323
 20
823.58050339
 10
-646.73799323
 20
823.58050339
 10
-646.73799323
 20
823.58050339
 10
-646.73799323
 20
823.58050339
 10
-646.73799323
 20
823.58050339
 10
-646.73799323
 20
823.58050339
 10
-646.73799323
 20
823.58050339
 10
-646.73799323
 20
823.58050339
 10
-646.73799323
 20
823.58050339
 10
-646.73799323
 20
823.58050339
 10
-646.73799323
 20
823.58050339
 10
-647.76654289
 20
823.92334686
 10
-648.79915306
 20
824.25613384
 10
-649.83564353
 20
824.57846135
 10
-650.87583412
 20
824.88992644
 10
-651.91954463
 20
825.19012615
 10
-652.96659487
 20
825.47865752
 10
-654.01680464
 20
825.75511759
 10
-655.06999374
 20
826.0191034
 10
-656.12598199
 20
826.27021199
 10
-657.18458918
 20
826.50804041
 10
-658.24563513
 20
826.73218568
 10
-659.30893963
 20
826.94224486
 10
-660.3743225
 20
827.13781498
 10
-661.44160354
 20
827.31849307
 10
-662.51060254
 20
827.4838762
 10
-663.58113933
 20
827.63356138
 10
-664.6530337
 20
827.76714567
 10
-665.72610546
 20
827.88422609
 10
-666.80017442
 20
827.98439971
 10
-667.87506037
 20
828.06726354
 10
-668.95058313
 20
828.13241464
 10
-670.0265625
 20
828.17945004
 10
-671.10281828
 20
828.20796678
 10
-672.17917029
 20
828.21756191
  0
LWPOLYLINE
  5
199
102
{ACAD_REACTORS
330
19A
102
}
100
AcDbEntity
  8
DETAIL_1
 62
    28
  6
CONTINUOUS
370
    -3
100
AcDbPolyline
 90
       12
 70
     1
 43
0.0
 10
1267.13318824
 20
806.60849775
 10
1244.61133421
 20
806.60849775
 10
1244.61133421
 20
767.85475904
 10
1267.69489448
 20
767.85475904
 10
1267.69489448
 20
774.14586892
 10
1251.96883055
 20
774.14586892
 10
1251.96883055
 20
784.87360271
 10
1264.66225105
 20
784.87360271
 10
1263.65117982
 20
791.10711632
 10
1251.96883055
 20
791.10711632
 10
1251.96883055
 20
800.31795812
 10
1267.13318824
 20
800.31795812
  0
HATCH
  5
19A
100
AcDbEntity
  8
DETAIL_1
 62
    28
  6
CONTINUOUS
100
AcDbHatch
 10
0.0
 20
0.0
 30
0.0
210
0.0
220
0.0
230
1.0
  2
SOLID
 70
     1
 71
     1
 91
        1
 92
        7
 72
     0
 73
     1
 93
       12
 10
1267.13318824
 20
806.60849775
 10
1244.61133421
 20
806.60849775
 10
1244.61133421
 20
767.85475904
 10
1267.69489448
 20
767.85475904
 10
1267.69489448
 20
774.14586892
 10
1251.96883055
 20
774.14586892
 10
1251.96883055
 20
784.87360271
 10
1264.66225105
 20
784.87360271
 10
1263.65117982
 20
791.10711632
 10
1251.96883055
 20
791.10711632
 10
1251.96883055
 20
800.31795812
 10
1267.13318824
 20
800.31795812
 97
        1
330
199
 75
     0
 76
     2
 47
0.775229
 98
        1
 10
0.0
 20
0.0
  0
LWPOLYLINE
  5
19B
102
{ACAD_REACTORS
330
19C
102
}
100
AcDbEntity
  8
DETAIL_1
 62
    28
  6
CONTINUOUS
370
    -3
100
AcDbPolyline
 90
      336
 70
     1
 43
0.0
 10
1301.58458013
 20
805.32166729
 10
1301.15650324
 20
805.51388341
 10
1300.72009075
 20
805.69805648
 10
1300.27512362
 20
805.8739182
 10
1299.8213828
 20
806.04120029
 10
1299.35864924
 20
806.19963443
 10
1298.8867039
 20
806.34895233
 10
1298.40532774
 20
806.48888568
 10
1297.9143017
 20
806.6191662
 10
1297.41340675
 20
806.73952558
 10
1296.90242384
 20
806.84969551
 10
1296.38113392
 20
806.94940771
 10
1295.84931795
 20
807.03839387
 10
1295.30675689
 20
807.11638569
 10
1294.75323168
 20
807.18311487
 10
1294.18852328
 20
807.23831311
 10
1293.61241265
 20
807.28171212
 10
1293.02468074
 20
807.31304359
 10
1292.42510851
 20
807.33203923
 10
1291.81347691
 20
807.33843073
 10
1290.36353448
 20
807.29632627
 10
1288.96323686
 20
807.17124748
 10
1287.61365576
 20
806.96504622
 10
1286.3158629
 20
806.67957434
 10
1285.07092998
 20
806.3166837
 10
1283.87992872
 20
805.87822617
 10
1282.74393083
 20
805.36605361
 10
1281.66400803
 20
804.78201788
 10
1280.64123203
 20
804.12797083
 10
1279.67667454
 20
803.40576433
 10
1278.77140727
 20
802.61725023
 10
1277.92650194
 20
801.76428041
 10
1277.14303026
 20
800.84870671
 10
1276.42206395
 20
799.87238101
 10
1275.7646747
 20
798.83715515
 10
1275.17193425
 20
797.744881
 10
1274.6449143
 20
796.59741043
 10
1274.18468656
 20
795.39659528
 10
1273.79232275
 20
794.14428743
 10
1273.46889458
 20
792.84233872
 10
1273.21547376
 20
791.49260103
 10
1273.03313201
 20
790.09692622
 10
1272.92294103
 20
788.65716613
 10
1272.88597255
 20
787.17517264
 10
1272.92098798
 20
785.70043421
 10
1273.02569321
 20
784.26788215
 10
1273.19957665
 20
782.87934507
 10
1273.44212667
 20
781.53665157
 10
1273.7528317
 20
780.24163022
 10
1274.13118012
 20
778.99610963
 10
1274.57666034
 20
777.8019184
 10
1275.08876075
 20
776.66088511
 10
1275.66696976
 20
775.57483837
 10
1276.31077576
 20
774.54560676
 10
1277.01966716
 20
773.57501888
 10
1277.79313235
 20
772.66490333
 10
1278.63065973
 20
771.8170887
 10
1279.53173771
 20
771.03340359
 10
1280.49585468
 20
770.31567658
 10
1281.52249903
 20
769.66573628
 10
1282.61115918
 20
769.08541128
 10
1283.76132352
 20
768.57653017
 10
1284.97248045
 20
768.14092155
 10
1286.24411836
 20
767.78041401
 10
1287.57572567
 20
767.49683615
 10
1288.96679076
 20
767.29201656
 10
1290.41680204
 20
767.16778384
 10
1291.9252479
 20
767.12596658
 10
1292.5690367
 20
767.1341012
 10
1293.20841044
 20
767.15827736
 10
1293.8430528
 20
767.19815349
 10
1294.47264747
 20
767.25338804
 10
1295.09687814
 20
767.32363943
 10
1295.71542847
 20
767.40856612
 10
1296.32798216
 20
767.50782653
 10
1296.9342229
 20
767.62107911
 10
1297.53383436
 20
767.74798228
 10
1298.12650023
 20
767.8881945
 10
1298.71190419
 20
768.0413742
 10
1299.28972993
 20
768.20717981
 10
1299.85966114
 20
768.38526977
 10
1300.42138148
 20
768.57530253
 10
1300.97457466
 20
768.77693652
 10
1301.51892435
 20
768.98983017
 10
1302.05411424
 20
769.21364193
 10
1302.579828
 20
769.44803023
 10
1303.09574933
 20
769.69265352
 10
1303.60156191
 20
769.94717022
 10
1304.09694942
 20
770.21123879
 10
1304.58159554
 20
770.48451764
 10
1305.05518397
 20
770.76666523
 10
1305.51739838
 20
771.05733999
 10
1305.51739838
 20
771.15090407
 10
1305.51739838
 20
771.42090328
 10
1305.51739838
 20
771.85129804
 10
1305.51739838
 20
772.42604882
 10
1305.51739838
 20
773.12911605
 10
1305.51739838
 20
773.94446017
 10
1305.51739838
 20
774.85604163
 10
1305.51739838
 20
775.84782088
 10
1305.51739838
 20
776.90375835
 10
1305.51739838
 20
778.00781449
 10
1305.51739838
 20
779.14394974
 10
1305.51739838
 20
780.29612455
 10
1305.51739838
 20
781.44829936
 10
1305.51739838
 20
782.58443461
 10
1305.51739838
 20
783.68849075
 10
1305.51739838
 20
784.74442822
 10
1305.51739838
 20
785.73620747
 10
1305.51739838
 20
786.64778893
 10
1305.51739838
 20
787.46313305
 10
1305.51739838
 20
788.16620028
 10
1305.51739838
 20
788.74095106
 10
1305.51739838
 20
789.17134582
 10
1305.51739838
 20
789.44134503
 10
1305.51739838
 20
789.53490911
 10
1305.43861882
 20
789.53490911
 10
1305.21128352
 20
789.53490911
 10
1304.84889756
 20
789.53490911
 10
1304.36496599
 20
789.53490911
 10
1303.77299389
 20
789.53490911
 10
1303.08648632
 20
789.53490911
 10
1302.31894834
 20
789.53490911
 10
1301.48388503
 20
789.53490911
 10
1300.59480146
 20
789.53490911
 10
1299.66520268
 20
789.53490911
 10
1298.70859376
 20
789.53490911
 10
1297.73847978
 20
789.53490911
 10
1296.7683658
 20
789.53490911
 10
1295.81175689
 20
789.53490911
 10
1294.88215811
 20
789.53490911
 10
1293.99307454
 20
789.53490911
 10
1293.15801123
 20
789.53490911
 10
1292.39047325
 20
789.53490911
 10
1291.70396568
 20
789.53490911
 10
1291.11199358
 20
789.53490911
 10
1290.62806201
 20
789.53490911
 10
1290.26567604
 20
789.53490911
 10
1290.03834075
 20
789.53490911
 10
1289.95956119
 20
789.53490911
 10
1289.96411205
 20
789.50475677
 10
1289.97724454
 20
789.41774573
 10
1289.9981785
 20
789.27904496
 10
1290.02613378
 20
789.09382345
 10
1290.06033025
 20
788.86725015
 10
1290.09998775
 20
788.60449404
 10
1290.14432614
 20
788.3107241
 10
1290.19256526
 20
787.9911093
 10
1290.24392498
 20
787.6508186
 10
1290.29762513
 20
787.29502099
 10
1290.35288558
 20
786.92888544
 10
1290.40892618
 20
786.55758091
 10
1290.46496678
 20
786.18627638
 10
1290.52022723
 20
785.82014082
 10
1290.57392739
 20
785.46434321
 10
1290.62528711
 20
785.12405251
 10
1290.67352623
 20
784.80443771
 10
1290.71786462
 20
784.51066777
 10
1290.75752212
 20
784.24791166
 10
1290.79171858
 20
784.02133837
 10
1290.81967387
 20
783.83611685
 10
1290.84060783
 20
783.69741608
 10
1290.85374031
 20
783.61040505
 10
1290.85829117
 20
783.58025271
 10
1290.89810543
 20
783.58025271
 10
1291.012998
 20
783.58025271
 10
1291.19614358
 20
783.58025271
 10
1291.44071687
 20
783.58025271
 10
1291.73989256
 20
783.58025271
 10
1292.08684537
 20
783.58025271
 10
1292.47474998
 20
783.58025271
 10
1292.89678109
 20
783.58025271
 10
1293.34611342
 20
783.58025271
 10
1293.81592164
 20
783.58025271
 10
1294.29938046
 20
783.58025271
 10
1294.78966459
 20
783.58025271
 10
1295.27994872
 20
783.58025271
 10
1295.76340754
 20
783.58025271
 10
1296.23321577
 20
783.58025271
 10
1296.68254809
 20
783.58025271
 10
1297.1045792
 20
783.58025271
 10
1297.49248382
 20
783.58025271
 10
1297.83943662
 20
783.58025271
 10
1298.13861232
 20
783.58025271
 10
1298.38318561
 20
783.58025271
 10
1298.56633118
 20
783.58025271
 10
1298.68122375
 20
783.58025271
 10
1298.72103801
 20
783.58025271
 10
1298.72103801
 20
783.53674809
 10
1298.72103801
 20
783.41120622
 10
1298.72103801
 20
783.211085
 10
1298.72103801
 20
782.94384239
 10
1298.72103801
 20
782.61693631
 10
1298.72103801
 20
782.23782469
 10
1298.72103801
 20
781.81396548
 10
1298.72103801
 20
781.35281659
 10
1298.72103801
 20
780.86183598
 10
1298.72103801
 20
780.34848156
 10
1298.72103801
 20
779.82021128
 10
1298.72103801
 20
779.28448306
 10
1298.72103801
 20
778.74875484
 10
1298.72103801
 20
778.22048456
 10
1298.72103801
 20
777.70713014
 10
1298.72103801
 20
777.21614952
 10
1298.72103801
 20
776.75500064
 10
1298.72103801
 20
776.33114143
 10
1298.72103801
 20
775.95202981
 10
1298.72103801
 20
775.62512373
 10
1298.72103801
 20
775.35788112
 10
1298.72103801
 20
775.1577599
 10
1298.72103801
 20
775.03221802
 10
1298.72103801
 20
774.98871341
 10
1298.48226175
 20
774.86461261
 10
1298.24315506
 20
774.74525259
 10
1298.00337564
 20
774.63068137
 10
1297.7625812
 20
774.52094697
 10
1297.52042941
 20
774.4160974
 10
1297.27657798
 20
774.31618068
 10
1297.0306846
 20
774.22124482
 10
1296.78240698
 20
774.13133785
 10
1296.53140279
 20
774.04650778
 10
1296.27732975
 20
773.96680262
 10
1296.01984554
 20
773.89227039
 10
1295.75860785
 20
773.82295912
 10
1295.4932744
 20
773.75891681
 10
1295.22350286
 20
773.70019148
 10
1294.94895095
 20
773.64683115
 10
1294.66927634
 20
773.59888384
 10
1294.38413674
 20
773.55639756
 10
1294.09318984
 20
773.51942034
 10
1293.79609334
 20
773.48800017
 10
1293.49250494
 20
773.46218509
 10
1293.18208232
 20
773.44202311
 10
1292.86448318
 20
773.42756225
 10
1292.53936523
 20
773.41885052
 10
1292.20638615
 20
773.41593594
 10
1291.25071447
 20
773.44440836
 10
1290.33543127
 20
773.52904546
 10
1289.46056129
 20
773.66867702
 10
1288.62612929
 20
773.86213282
 10
1287.83216003
 20
774.10824264
 10
1287.07867824
 20
774.40583626
 10
1286.36570868
 20
774.75374346
 10
1285.69327611
 20
775.15079402
 10
1285.06140526
 20
775.5958177
 10
1284.4701209
 20
776.08764431
 10
1283.91944778
 20
776.6251036
 10
1283.40941064
 20
777.20702536
 10
1282.94003424
 20
777.83223938
 10
1282.51134332
 20
778.49957542
 10
1282.12336264
 20
779.20786326
 10
1281.77611695
 20
779.95593269
 10
1281.469631
 20
780.74261349
 10
1281.20392954
 20
781.56673543
 10
1280.97903732
 20
782.42712829
 10
1280.7949791
 20
783.32262185
 10
1280.65177961
 20
784.25204588
 10
1280.54946363
 20
785.21423018
 10
1280.48805588
 20
786.20800451
 10
1280.46758113
 20
787.23219865
 10
1280.48747077
 20
788.24962579
 10
1280.54712318
 20
789.23719668
 10
1280.64651362
 20
790.19371661
 10
1280.78561733
 20
791.11799086
 10
1280.96440956
 20
792.0088247
 10
1281.18286556
 20
792.8650234
 10
1281.44096058
 20
793.68539223
 10
1281.73866987
 20
794.46873649
 10
1282.07596868
 20
795.21386143
 10
1282.45283225
 20
795.91957234
 10
1282.86923585
 20
796.58467449
 10
1283.3251547
 20
797.20797316
 10
1283.82056408
 20
797.78827362
 10
1284.35543921
 20
798.32438114
 10
1284.92975536
 20
798.81510101
 10
1285.54348778
 20
799.25923849
 10
1286.1966117
 20
799.65559887
 10
1286.88910238
 20
800.00298741
 10
1287.62093508
 20
800.3002094
 10
1288.39208503
 20
800.5460701
 10
1289.20252749
 20
800.7393748
 10
1290.05223771
 20
800.87892877
 10
1290.94119093
 20
800.96353728
 10
1291.86936241
 20
800.99200561
 10
1292.39883253
 20
800.98389129
 10
1292.92020862
 20
800.9598572
 10
1293.4335882
 20
800.92036668
 10
1293.93906879
 20
800.86588308
 10
1294.4367479
 20
800.79686972
 10
1294.92672305
 20
800.71378995
 10
1295.40909177
 20
800.61710709
 10
1295.88395156
 20
800.50728449
 10
1296.35139995
 20
800.38478548
 10
1296.81153446
 20
800.25007341
 10
1297.26445261
 20
800.10361159
 10
1297.71025191
 20
799.94586338
 10
1298.14902988
 20
799.77729211
 10
1298.58088404
 20
799.59836111
 10
1299.00591191
 20
799.40953372
 10
1299.424211
 20
799.21127328
 10
1299.83587885
 20
799.00404312
 10
1300.24101295
 20
798.78830658
 10
1300.63971084
 20
798.56452699
 10
1301.03207003
 20
798.3331677
 10
1301.41818804
 20
798.09469204
 10
1301.79816239
 20
797.84956334
 10
1302.1720906
 20
797.59824494
 10
1302.54007018
 20
797.34120018
 10
1302.54547577
 20
797.3761806
 10
1302.56107476
 20
797.47712407
 10
1302.58594048
 20
797.63803395
 10
1302.61914625
 20
797.85291362
 10
1302.6597654
 20
798.11576642
 10
1302.70687127
 20
798.42059571
 10
1302.75953717
 20
798.76140485
 10
1302.81683643
 20
799.1321972
 10
1302.87784239
 20
799.52697612
 10
1302.94162836
 20
799.93974497
 10
1303.00726768
 20
800.36450709
 10
1303.07383367
 20
800.79526586
 10
1303.14039966
 20
801.22602463
 10
1303.20603898
 20
801.65078676
 10
1303.26982495
 20
802.0635556
 10
1303.33083091
 20
802.45833452
 10
1303.38813017
 20
802.82912687
 10
1303.44079607
 20
803.16993602
 10
1303.48790193
 20
803.47476531
 10
1303.52852109
 20
803.73761811
 10
1303.56172686
 20
803.95249777
 10
1303.58659258
 20
804.11340766
 10
1303.60219157
 20
804.21435113
 10
1303.60759716
 20
804.24933154
 10
1303.21791259
 20
804.47773838
 10
1302.82098765
 20
804.69944368
 10
1302.41660329
 20
804.91417913
 10
1302.00454046
 20
805.12167643
  0
HATCH
  5
19C
100
AcDbEntity
  8
DETAIL_1
 62
    28
  6
CONTINUOUS
100
AcDbHatch
 10
0.0
 20
0.0
 30
0.0
210
0.0
220
0.0
230
1.0
  2
SOLID
 70
     1
 71
     1
 91
        1
 92
        7
 72
     0
 73
     1
 93
      336
 10
1301.58458013
 20
805.32166729
 10
1301.15650324
 20
805.51388341
 10
1300.72009075
 20
805.69805648
 10
1300.27512362
 20
805.8739182
 10
1299.8213828
 20
806.04120029
 10
1299.35864924
 20
806.19963443
 10
1298.8867039
 20
806.34895233
 10
1298.40532774
 20
806.48888568
 10
1297.9143017
 20
806.6191662
 10
1297.41340675
 20
806.73952558
 10
1296.90242384
 20
806.84969551
 10
1296.38113392
 20
806.94940771
 10
1295.84931795
 20
807.03839387
 10
1295.30675689
 20
807.11638569
 10
1294.75323168
 20
807.18311487
 10
1294.18852328
 20
807.23831311
 10
1293.61241265
 20
807.28171212
 10
1293.02468074
 20
807.31304359
 10
1292.42510851
 20
807.33203923
 10
1291.81347691
 20
807.33843073
 10
1290.36353448
 20
807.29632627
 10
1288.96323686
 20
807.17124748
 10
1287.61365576
 20
806.96504622
 10
1286.3158629
 20
806.67957434
 10
1285.07092998
 20
806.3166837
 10
1283.87992872
 20
805.87822617
 10
1282.74393083
 20
805.36605361
 10
1281.66400803
 20
804.78201788
 10
1280.64123203
 20
804.12797083
 10
1279.67667454
 20
803.40576433
 10
1278.77140727
 20
802.61725023
 10
1277.92650194
 20
801.76428041
 10
1277.14303026
 20
800.84870671
 10
1276.42206395
 20
799.87238101
 10
1275.7646747
 20
798.83715515
 10
1275.17193425
 20
797.744881
 10
1274.6449143
 20
796.59741043
 10
1274.18468656
 20
795.39659528
 10
1273.79232275
 20
794.14428743
 10
1273.46889458
 20
792.84233872
 10
1273.21547376
 20
791.49260103
 10
1273.03313201
 20
790.09692622
 10
1272.92294103
 20
788.65716613
 10
1272.88597255
 20
787.17517264
 10
1272.92098798
 20
785.70043421
 10
1273.02569321
 20
784.26788215
 10
1273.19957665
 20
782.87934507
 10
1273.44212667
 20
781.53665157
 10
1273.7528317
 20
780.24163022
 10
1274.13118012
 20
778.99610963
 10
1274.57666034
 20
777.8019184
 10
1275.08876075
 20
776.66088511
 10
1275.66696976
 20
775.57483837
 10
1276.31077576
 20
774.54560676
 10
1277.01966716
 20
773.57501888
 10
1277.79313235
 20
772.66490333
 10
1278.63065973
 20
771.8170887
 10
1279.53173771
 20
771.03340359
 10
1280.49585468
 20
770.31567658
 10
1281.52249903
 20
769.66573628
 10
1282.61115918
 20
769.08541128
 10
1283.76132352
 20
768.57653017
 10
1284.97248045
 20
768.14092155
 10
1286.24411836
 20
767.78041401
 10
1287.57572567
 20
767.49683615
 10
1288.96679076
 20
767.29201656
 10
1290.41680204
 20
767.16778384
 10
1291.9252479
 20
767.12596658
 10
1292.5690367
 20
767.1341012
 10
1293.20841044
 20
767.15827736
 10
1293.8430528
 20
767.19815349
 10
1294.47264747
 20
767.25338804
 10
1295.09687814
 20
767.32363943
 10
1295.71542847
 20
767.40856612
 10
1296.32798216
 20
767.50782653
 10
1296.9342229
 20
767.62107911
 10
1297.53383436
 20
767.74798228
 10
1298.12650023
 20
767.8881945
 10
1298.71190419
 20
768.0413742
 10
1299.28972993
 20
768.20717981
 10
1299.85966114
 20
768.38526977
 10
1300.42138148
 20
768.57530253
 10
1300.97457466
 20
768.77693652
 10
1301.51892435
 20
768.98983017
 10
1302.05411424
 20
769.21364193
 10
1302.579828
 20
769.44803023
 10
1303.09574933
 20
769.69265352
 10
1303.60156191
 20
769.94717022
 10
1304.09694942
 20
770.21123879
 10
1304.58159554
 20
770.48451764
 10
1305.05518397
 20
770.76666523
 10
1305.51739838
 20
771.05733999
 10
1305.51739838
 20
771.15090407
 10
1305.51739838
 20
771.42090328
 10
1305.51739838
 20
771.85129804
 10
1305.51739838
 20
772.42604882
 10
1305.51739838
 20
773.12911605
 10
1305.51739838
 20
773.94446017
 10
1305.51739838
 20
774.85604163
 10
1305.51739838
 20
775.84782088
 10
1305.51739838
 20
776.90375835
 10
1305.51739838
 20
778.00781449
 10
1305.51739838
 20
779.14394974
 10
1305.51739838
 20
780.29612455
 10
1305.51739838
 20
781.44829936
 10
1305.51739838
 20
782.58443461
 10
1305.51739838
 20
783.68849075
 10
1305.51739838
 20
784.74442822
 10
1305.51739838
 20
785.73620747
 10
1305.51739838
 20
786.64778893
 10
1305.51739838
 20
787.46313305
 10
1305.51739838
 20
788.16620028
 10
1305.51739838
 20
788.74095106
 10
1305.51739838
 20
789.17134582
 10
1305.51739838
 20
789.44134503
 10
1305.51739838
 20
789.53490911
 10
1305.43861882
 20
789.53490911
 10
1305.21128352
 20
789.53490911
 10
1304.84889756
 20
789.53490911
 10
1304.36496599
 20
789.53490911
 10
1303.77299389
 20
789.53490911
 10
1303.08648632
 20
789.53490911
 10
1302.31894834
 20
789.53490911
 10
1301.48388503
 20
789.53490911
 10
1300.59480146
 20
789.53490911
 10
1299.66520268
 20
789.53490911
 10
1298.70859376
 20
789.53490911
 10
1297.73847978
 20
789.53490911
 10
1296.7683658
 20
789.53490911
 10
1295.81175689
 20
789.53490911
 10
1294.88215811
 20
789.53490911
 10
1293.99307454
 20
789.53490911
 10
1293.15801123
 20
789.53490911
 10
1292.39047325
 20
789.53490911
 10
1291.70396568
 20
789.53490911
 10
1291.11199358
 20
789.53490911
 10
1290.62806201
 20
789.53490911
 10
1290.26567604
 20
789.53490911
 10
1290.03834075
 20
789.53490911
 10
1289.95956119
 20
789.53490911
 10
1289.96411205
 20
789.50475677
 10
1289.97724454
 20
789.41774573
 10
1289.9981785
 20
789.27904496
 10
1290.02613378
 20
789.09382345
 10
1290.06033025
 20
788.86725015
 10
1290.09998775
 20
788.60449404
 10
1290.14432614
 20
788.3107241
 10
1290.19256526
 20
787.9911093
 10
1290.24392498
 20
787.6508186
 10
1290.29762513
 20
787.29502099
 10
1290.35288558
 20
786.92888544
 10
1290.40892618
 20
786.55758091
 10
1290.46496678
 20
786.18627638
 10
1290.52022723
 20
785.82014082
 10
1290.57392739
 20
785.46434321
 10
1290.62528711
 20
785.12405251
 10
1290.67352623
 20
784.80443771
 10
1290.71786462
 20
784.51066777
 10
1290.75752212
 20
784.24791166
 10
1290.79171858
 20
784.02133837
 10
1290.81967387
 20
783.83611685
 10
1290.84060783
 20
783.69741608
 10
1290.85374031
 20
783.61040505
 10
1290.85829117
 20
783.58025271
 10
1290.89810543
 20
783.58025271
 10
1291.012998
 20
783.58025271
 10
1291.19614358
 20
783.58025271
 10
1291.44071687
 20
783.58025271
 10
1291.73989256
 20
783.58025271
 10
1292.08684537
 20
783.58025271
 10
1292.47474998
 20
783.58025271
 10
1292.89678109
 20
783.58025271
 10
1293.34611342
 20
783.58025271
 10
1293.81592164
 20
783.58025271
 10
1294.29938046
 20
783.58025271
 10
1294.78966459
 20
783.58025271
 10
1295.27994872
 20
783.58025271
 10
1295.76340754
 20
783.58025271
 10
1296.23321577
 20
783.58025271
 10
1296.68254809
 20
783.58025271
 10
1297.1045792
 20
783.58025271
 10
1297.49248382
 20
783.58025271
 10
1297.83943662
 20
783.58025271
 10
1298.13861232
 20
783.58025271
 10
1298.38318561
 20
783.58025271
 10
1298.56633118
 20
783.58025271
 10
1298.68122375
 20
783.58025271
 10
1298.72103801
 20
783.58025271
 10
1298.72103801
 20
783.53674809
 10
1298.72103801
 20
783.41120622
 10
1298.72103801
 20
783.211085
 10
1298.72103801
 20
782.94384239
 10
1298.72103801
 20
782.61693631
 10
1298.72103801
 20
782.23782469
 10
1298.72103801
 20
781.81396548
 10
1298.72103801
 20
781.35281659
 10
1298.72103801
 20
780.86183598
 10
1298.72103801
 20
780.34848156
 10
1298.72103801
 20
779.82021128
 10
1298.72103801
 20
779.28448306
 10
1298.72103801
 20
778.74875484
 10
1298.72103801
 20
778.22048456
 10
1298.72103801
 20
777.70713014
 10
1298.72103801
 20
777.21614952
 10
1298.72103801
 20
776.75500064
 10
1298.72103801
 20
776.33114143
 10
1298.72103801
 20
775.95202981
 10
1298.72103801
 20
775.62512373
 10
1298.72103801
 20
775.35788112
 10
1298.72103801
 20
775.1577599
 10
1298.72103801
 20
775.03221802
 10
1298.72103801
 20
774.98871341
 10
1298.48226175
 20
774.86461261
 10
1298.24315506
 20
774.74525259
 10
1298.00337564
 20
774.63068137
 10
1297.7625812
 20
774.52094697
 10
1297.52042941
 20
774.4160974
 10
1297.27657798
 20
774.31618068
 10
1297.0306846
 20
774.22124482
 10
1296.78240698
 20
774.13133785
 10
1296.53140279
 20
774.04650778
 10
1296.27732975
 20
773.96680262
 10
1296.01984554
 20
773.89227039
 10
1295.75860785
 20
773.82295912
 10
1295.4932744
 20
773.75891681
 10
1295.22350286
 20
773.70019148
 10
1294.94895095
 20
773.64683115
 10
1294.66927634
 20
773.59888384
 10
1294.38413674
 20
773.55639756
 10
1294.09318984
 20
773.51942034
 10
1293.79609334
 20
773.48800017
 10
1293.49250494
 20
773.46218509
 10
1293.18208232
 20
773.44202311
 10
1292.86448318
 20
773.42756225
 10
1292.53936523
 20
773.41885052
 10
1292.20638615
 20
773.41593594
 10
1291.25071447
 20
773.44440836
 10
1290.33543127
 20
773.52904546
 10
1289.46056129
 20
773.66867702
 10
1288.62612929
 20
773.86213282
 10
1287.83216003
 20
774.10824264
 10
1287.07867824
 20
774.40583626
 10
1286.36570868
 20
774.75374346
 10
1285.69327611
 20
775.15079402
 10
1285.06140526
 20
775.5958177
 10
1284.4701209
 20
776.08764431
 10
1283.91944778
 20
776.6251036
 10
1283.40941064
 20
777.20702536
 10
1282.94003424
 20
777.83223938
 10
1282.51134332
 20
778.49957542
 10
1282.12336264
 20
779.20786326
 10
1281.77611695
 20
779.95593269
 10
1281.469631
 20
780.74261349
 10
1281.20392954
 20
781.56673543
 10
1280.97903732
 20
782.42712829
 10
1280.7949791
 20
783.32262185
 10
1280.65177961
 20
784.25204588
 10
1280.54946363
 20
785.21423018
 10
1280.48805588
 20
786.20800451
 10
1280.46758113
 20
787.23219865
 10
1280.48747077
 20
788.24962579
 10
1280.54712318
 20
789.23719668
 10
1280.64651362
 20
790.19371661
 10
1280.78561733
 20
791.11799086
 10
1280.96440956
 20
792.0088247
 10
1281.18286556
 20
792.8650234
 10
1281.44096058
 20
793.68539223
 10
1281.73866987
 20
794.46873649
 10
1282.07596868
 20
795.21386143
 10
1282.45283225
 20
795.91957234
 10
1282.86923585
 20
796.58467449
 10
1283.3251547
 20
797.20797316
 10
1283.82056408
 20
797.78827362
 10
1284.35543921
 20
798.32438114
 10
1284.92975536
 20
798.81510101
 10
1285.54348778
 20
799.25923849
 10
1286.1966117
 20
799.65559887
 10
1286.88910238
 20
800.00298741
 10
1287.62093508
 20
800.3002094
 10
1288.39208503
 20
800.5460701
 10
1289.20252749
 20
800.7393748
 10
1290.05223771
 20
800.87892877
 10
1290.94119093
 20
800.96353728
 10
1291.86936241
 20
800.99200561
 10
1292.39883253
 20
800.98389129
 10
1292.92020862
 20
800.9598572
 10
1293.4335882
 20
800.92036668
 10
1293.93906879
 20
800.86588308
 10
1294.4367479
 20
800.79686972
 10
1294.92672305
 20
800.71378995
 10
1295.40909177
 20
800.61710709
 10
1295.88395156
 20
800.50728449
 10
1296.35139995
 20
800.38478548
 10
1296.81153446
 20
800.25007341
 10
1297.26445261
 20
800.10361159
 10
1297.71025191
 20
799.94586338
 10
1298.14902988
 20
799.77729211
 10
1298.58088404
 20
799.59836111
 10
1299.00591191
 20
799.40953372
 10
1299.424211
 20
799.21127328
 10
1299.83587885
 20
799.00404312
 10
1300.24101295
 20
798.78830658
 10
1300.63971084
 20
798.56452699
 10
1301.03207003
 20
798.3331677
 10
1301.41818804
 20
798.09469204
 10
1301.79816239
 20
797.84956334
 10
1302.1720906
 20
797.59824494
 10
1302.54007018
 20
797.34120018
 10
1302.54547577
 20
797.3761806
 10
1302.56107476
 20
797.47712407
 10
1302.58594048
 20
797.63803395
 10
1302.61914625
 20
797.85291362
 10
1302.6597654
 20
798.11576642
 10
1302.70687127
 20
798.42059571
 10
1302.75953717
 20
798.76140485
 10
1302.81683643
 20
799.1321972
 10
1302.87784239
 20
799.52697612
 10
1302.94162836
 20
799.93974497
 10
1303.00726768
 20
800.36450709
 10
1303.07383367
 20
800.79526586
 10
1303.14039966
 20
801.22602463
 10
1303.20603898
 20
801.65078676
 10
1303.26982495
 20
802.0635556
 10
1303.33083091
 20
802.45833452
 10
1303.38813017
 20
802.82912687
 10
1303.44079607
 20
803.16993602
 10
1303.48790193
 20
803.47476531
 10
1303.52852109
 20
803.73761811
 10
1303.56172686
 20
803.95249777
 10
1303.58659258
 20
804.11340766
 10
1303.60219157
 20
804.21435113
 10
1303.60759716
 20
804.24933154
 10
1303.21791259
 20
804.47773838
 10
1302.82098765
 20
804.69944368
 10
1302.41660329
 20
804.91417913
 10
1302.00454046
 20
805.12167643
 97
        1
330
19B
 75
     0
 76
     2
 47
0.775229
 98
        1
 10
0.0
 20
0.0
  0
LWPOLYLINE
  5
19D
102
{ACAD_REACTORS
330
19E
102
}
100
AcDbEntity
  8
DETAIL_1
 62
    28
  6
CONTINUOUS
370
    -3
100
AcDbPolyline
 90
      336
 70
     1
 43
0.0
 10
1343.22775111
 20
803.73761811
 10
1343.26095689
 20
803.95249777
 10
1343.2858226
 20
804.11340766
 10
1343.30142159
 20
804.21435113
 10
1343.30682719
 20
804.24933154
 10
1342.91714262
 20
804.47773838
 10
1342.52021767
 20
804.69944368
 10
1342.11583331
 20
804.91417913
 10
1341.70377049
 20
805.12167643
 10
1341.28381015
 20
805.32166729
 10
1340.85573326
 20
805.51388341
 10
1340.41932077
 20
805.69805648
 10
1339.97435364
 20
805.8739182
 10
1339.52061282
 20
806.04120029
 10
1339.05787926
 20
806.19963443
 10
1338.58593392
 20
806.34895233
 10
1338.10455776
 20
806.48888568
 10
1337.61353173
 20
806.6191662
 10
1337.11263678
 20
806.73952558
 10
1336.60165386
 20
806.84969551
 10
1336.08036395
 20
806.94940771
 10
1335.54854798
 20
807.03839387
 10
1335.00598691
 20
807.11638569
 10
1334.4524617
 20
807.18311487
 10
1333.8877533
 20
807.23831311
 10
1333.31164267
 20
807.28171212
 10
1332.72391077
 20
807.31304359
 10
1332.12433853
 20
807.33203923
 10
1331.51270694
 20
807.33843073
 10
1330.06276451
 20
807.29632627
 10
1328.66246688
 20
807.17124748
 10
1327.31288578
 20
806.96504622
 10
1326.01509292
 20
806.67957434
 10
1324.77016
 20
806.3166837
 10
1323.57915874
 20
805.87822617
 10
1322.44316086
 20
805.36605361
 10
1321.36323805
 20
804.78201788
 10
1320.34046205
 20
804.12797083
 10
1319.37590456
 20
803.40576433
 10
1318.47063729
 20
802.61725023
 10
1317.62573197
 20
801.76428041
 10
1316.84226029
 20
800.84870671
 10
1316.12129397
 20
799.87238101
 10
1315.46390473
 20
798.83715515
 10
1314.87116427
 20
797.744881
 10
1314.34414432
 20
796.59741043
 10
1313.88391658
 20
795.39659528
 10
1313.49155277
 20
794.14428743
 10
1313.1681246
 20
792.84233872
 10
1312.91470378
 20
791.49260103
 10
1312.73236203
 20
790.09692622
 10
1312.62217106
 20
788.65716613
 10
1312.58520257
 20
787.17517264
 10
1312.62021801
 20
785.70043421
 10
1312.72492324
 20
784.26788215
 10
1312.89880667
 20
782.87934507
 10
1313.1413567
 20
781.53665157
 10
1313.45206172
 20
780.24163022
 10
1313.83041014
 20
778.99610963
 10
1314.27589036
 20
777.8019184
 10
1314.78799078
 20
776.66088511
 10
1315.36619978
 20
775.57483837
 10
1316.01000579
 20
774.54560676
 10
1316.71889718
 20
773.57501888
 10
1317.49236237
 20
772.66490333
 10
1318.32988976
 20
771.8170887
 10
1319.23096773
 20
771.03340359
 10
1320.1950847
 20
770.31567658
 10
1321.22172906
 20
769.66573628
 10
1322.3103892
 20
769.08541128
 10
1323.46055354
 20
768.57653017
 10
1324.67171047
 20
768.14092155
 10
1325.94334838
 20
767.78041401
 10
1327.27495569
 20
767.49683615
 10
1328.66602078
 20
767.29201656
 10
1330.11603206
 20
767.16778384
 10
1331.62447792
 20
767.12596658
 10
1332.26826672
 20
767.1341012
 10
1332.90764046
 20
767.15827736
 10
1333.54228283
 20
767.19815349
 10
1334.1718775
 20
767.25338804
 10
1334.79610816
 20
767.32363943
 10
1335.41465849
 20
767.40856612
 10
1336.02721219
 20
767.50782653
 10
1336.63345292
 20
767.62107911
 10
1337.23306438
 20
767.74798228
 10
1337.82573025
 20
767.8881945
 10
1338.41113422
 20
768.0413742
 10
1338.98895996
 20
768.20717981
 10
1339.55889116
 20
768.38526977
 10
1340.12061151
 20
768.57530253
 10
1340.67380468
 20
768.77693652
 10
1341.21815437
 20
768.98983017
 10
1341.75334426
 20
769.21364193
 10
1342.27905802
 20
769.44803023
 10
1342.79497935
 20
769.69265352
 10
1343.30079193
 20
769.94717022
 10
1343.79617944
 20
770.21123879
 10
1344.28082557
 20
770.48451764
 10
1344.75441399
 20
770.76666523
 10
1345.2166284
 20
771.05733999
 10
1345.2166284
 20
771.15090407
 10
1345.2166284
 20
771.42090328
 10
1345.2166284
 20
771.85129804
 10
1345.2166284
 20
772.42604882
 10
1345.2166284
 20
773.12911605
 10
1345.2166284
 20
773.94446017
 10
1345.2166284
 20
774.85604163
 10
1345.2166284
 20
775.84782088
 10
1345.2166284
 20
776.90375835
 10
1345.2166284
 20
778.00781449
 10
1345.2166284
 20
779.14394974
 10
1345.2166284
 20
780.29612455
 10
1345.2166284
 20
781.44829936
 10
1345.2166284
 20
782.58443461
 10
1345.2166284
 20
783.68849075
 10
1345.2166284
 20
784.74442822
 10
1345.2166284
 20
785.73620747
 10
1345.2166284
 20
786.64778893
 10
1345.2166284
 20
787.46313305
 10
1345.2166284
 20
788.16620028
 10
1345.2166284
 20
788.74095106
 10
1345.2166284
 20
789.17134582
 10
1345.2166284
 20
789.44134503
 10
1345.2166284
 20
789.53490911
 10
1345.13784884
 20
789.53490911
 10
1344.91051355
 20
789.53490911
 10
1344.54812758
 20
789.53490911
 10
1344.06419602
 20
789.53490911
 10
1343.47222391
 20
789.53490911
 10
1342.78571634
 20
789.53490911
 10
1342.01817837
 20
789.53490911
 10
1341.18311506
 20
789.53490911
 10
1340.29403148
 20
789.53490911
 10
1339.3644327
 20
789.53490911
 10
1338.40782379
 20
789.53490911
 10
1337.43770981
 20
789.53490911
 10
1336.46759583
 20
789.53490911
 10
1335.51098692
 20
789.53490911
 10
1334.58138814
 20
789.53490911
 10
1333.69230456
 20
789.53490911
 10
1332.85724125
 20
789.53490911
 10
1332.08970328
 20
789.53490911
 10
1331.4031957
 20
789.53490911
 10
1330.8112236
 20
789.53490911
 10
1330.32729203
 20
789.53490911
 10
1329.96490607
 20
789.53490911
 10
1329.73757077
 20
789.53490911
 10
1329.65879121
 20
789.53490911
 10
1329.66334208
 20
789.50475677
 10
1329.67647456
 20
789.41774573
 10
1329.69740852
 20
789.27904496
 10
1329.72536381
 20
789.09382345
 10
1329.75956027
 20
788.86725015
 10
1329.79921777
 20
788.60449404
 10
1329.84355616
 20
788.3107241
 10
1329.89179528
 20
787.9911093
 10
1329.943155
 20
787.6508186
 10
1329.99685516
 20
787.29502099
 10
1330.05211561
 20
786.92888544
 10
1330.10815621
 20
786.55758091
 10
1330.16419681
 20
786.18627638
 10
1330.21945726
 20
785.82014082
 10
1330.27315741
 20
785.46434321
 10
1330.32451713
 20
785.12405251
 10
1330.37275625
 20
784.80443771
 10
1330.41709464
 20
784.51066777
 10
1330.45675214
 20
784.24791166
 10
1330.49094861
 20
784.02133837
 10
1330.51890389
 20
783.83611685
 10
1330.53983785
 20
783.69741608
 10
1330.55297034
 20
783.61040505
 10
1330.5575212
 20
783.58025271
 10
1330.59733545
 20
783.58025271
 10
1330.71222802
 20
783.58025271
 10
1330.8953736
 20
783.58025271
 10
1331.13994689
 20
783.58025271
 10
1331.43912259
 20
783.58025271
 10
1331.78607539
 20
783.58025271
 10
1332.17398
 20
783.58025271
 10
1332.59601112
 20
783.58025271
 10
1333.04534344
 20
783.58025271
 10
1333.51515166
 20
783.58025271
 10
1333.99861049
 20
783.58025271
 10
1334.48889461
 20
783.58025271
 10
1334.97917874
 20
783.58025271
 10
1335.46263757
 20
783.58025271
 10
1335.93244579
 20
783.58025271
 10
1336.38177811
 20
783.58025271
 10
1336.80380923
 20
783.58025271
 10
1337.19171384
 20
783.58025271
 10
1337.53866664
 20
783.58025271
 10
1337.83784234
 20
783.58025271
 10
1338.08241563
 20
783.58025271
 10
1338.26556121
 20
783.58025271
 10
1338.38045378
 20
783.58025271
 10
1338.42026803
 20
783.58025271
 10
1338.42026803
 20
783.53674809
 10
1338.42026803
 20
783.41120622
 10
1338.42026803
 20
783.211085
 10
1338.42026803
 20
782.94384239
 10
1338.42026803
 20
782.61693631
 10
1338.42026803
 20
782.23782469
 10
1338.42026803
 20
781.81396548
 10
1338.42026803
 20
781.35281659
 10
1338.42026803
 20
780.86183598
 10
1338.42026803
 20
780.34848156
 10
1338.42026803
 20
779.82021128
 10
1338.42026803
 20
779.28448306
 10
1338.42026803
 20
778.74875484
 10
1338.42026803
 20
778.22048456
 10
1338.42026803
 20
777.70713014
 10
1338.42026803
 20
777.21614952
 10
1338.42026803
 20
776.75500064
 10
1338.42026803
 20
776.33114143
 10
1338.42026803
 20
775.95202981
 10
1338.42026803
 20
775.62512373
 10
1338.42026803
 20
775.35788112
 10
1338.42026803
 20
775.1577599
 10
1338.42026803
 20
775.03221802
 10
1338.42026803
 20
774.98871341
 10
1338.18149177
 20
774.86461261
 10
1337.94238508
 20
774.74525259
 10
1337.70260567
 20
774.63068137
 10
1337.46181122
 20
774.52094697
 10
1337.21965943
 20
774.4160974
 10
1336.975808
 20
774.31618068
 10
1336.72991463
 20
774.22124482
 10
1336.481637
 20
774.13133785
 10
1336.23063281
 20
774.04650778
 10
1335.97655977
 20
773.96680262
 10
1335.71907556
 20
773.89227039
 10
1335.45783788
 20
773.82295912
 10
1335.19250442
 20
773.75891681
 10
1334.92273289
 20
773.70019148
 10
1334.64818097
 20
773.64683115
 10
1334.36850636
 20
773.59888384
 10
1334.08336676
 20
773.55639756
 10
1333.79241987
 20
773.51942034
 10
1333.49532337
 20
773.48800017
 10
1333.19173496
 20
773.46218509
 10
1332.88131234
 20
773.44202311
 10
1332.56371321
 20
773.42756225
 10
1332.23859525
 20
773.41885052
 10
1331.90561617
 20
773.41593594
 10
1330.94994449
 20
773.44440836
 10
1330.03466129
 20
773.52904546
 10
1329.15979132
 20
773.66867702
 10
1328.32535932
 20
773.86213282
 10
1327.53139005
 20
774.10824264
 10
1326.77790826
 20
774.40583626
 10
1326.0649387
 20
774.75374346
 10
1325.39250613
 20
775.15079402
 10
1324.76063529
 20
775.5958177
 10
1324.16935093
 20
776.08764431
 10
1323.6186778
 20
776.6251036
 10
1323.10864066
 20
777.20702536
 10
1322.63926426
 20
777.83223938
 10
1322.21057334
 20
778.49957542
 10
1321.82259266
 20
779.20786326
 10
1321.47534697
 20
779.95593269
 10
1321.16886102
 20
780.74261349
 10
1320.90315956
 20
781.56673543
 10
1320.67826735
 20
782.42712829
 10
1320.49420912
 20
783.32262185
 10
1320.35100964
 20
784.25204588
 10
1320.24869365
 20
785.21423018
 10
1320.1872859
 20
786.20800451
 10
1320.16681116
 20
787.23219865
 10
1320.18670079
 20
788.24962579
 10
1320.24635321
 20
789.23719668
 10
1320.34574364
 20
790.19371661
 10
1320.48484735
 20
791.11799086
 10
1320.66363958
 20
792.0088247
 10
1320.88209558
 20
792.8650234
 10
1321.1401906
 20
793.68539223
 10
1321.43789989
 20
794.46873649
 10
1321.7751987
 20
795.21386143
 10
1322.15206228
 20
795.91957234
 10
1322.56846587
 20
796.58467449
 10
1323.02438473
 20
797.20797316
 10
1323.5197941
 20
797.78827362
 10
1324.05466924
 20
798.32438114
 10
1324.62898539
 20
798.81510101
 10
1325.2427178
 20
799.25923849
 10
1325.89584172
 20
799.65559887
 10
1326.58833241
 20
800.00298741
 10
1327.3201651
 20
800.3002094
 10
1328.09131505
 20
800.5460701
 10
1328.90175751
 20
800.7393748
 10
1329.75146773
 20
800.87892877
 10
1330.64042095
 20
800.96353728
 10
1331.56859243
 20
800.99200561
 10
1332.09806255
 20
800.98389129
 10
1332.61943865
 20
800.9598572
 10
1333.13281823
 20
800.92036668
 10
1333.63829881
 20
800.86588308
 10
1334.13597792
 20
800.79686972
 10
1334.62595308
 20
800.71378995
 10
1335.10832179
 20
800.61710709
 10
1335.58318159
 20
800.50728449
 10
1336.05062998
 20
800.38478548
 10
1336.51076449
 20
800.25007341
 10
1336.96368263
 20
800.10361159
 10
1337.40948193
 20
799.94586338
 10
1337.8482599
 20
799.77729211
 10
1338.28011406
 20
799.59836111
 10
1338.70514193
 20
799.40953372
 10
1339.12344103
 20
799.21127328
 10
1339.53510887
 20
799.00404312
 10
1339.94024298
 20
798.78830658
 10
1340.33894087
 20
798.56452699
 10
1340.73130006
 20
798.3331677
 10
1341.11741807
 20
798.09469204
 10
1341.49739242
 20
797.84956334
 10
1341.87132062
 20
797.59824494
 10
1342.2393002
 20
797.34120018
 10
1342.24470579
 20
797.3761806
 10
1342.26030478
 20
797.47712407
 10
1342.2851705
 20
797.63803395
 10
1342.31837627
 20
797.85291362
 10
1342.35899543
 20
798.11576642
 10
1342.40610129
 20
798.42059571
 10
1342.45876719
 20
798.76140485
 10
1342.51606646
 20
799.1321972
 10
1342.57707241
 20
799.52697612
 10
1342.64085838
 20
799.93974497
 10
1342.7064977
 20
800.36450709
 10
1342.77306369
 20
800.79526586
 10
1342.83962968
 20
801.22602463
 10
1342.905269
 20
801.65078676
 10
1342.96905498
 20
802.0635556
 10
1343.03006093
 20
802.45833452
 10
1343.08736019
 20
802.82912687
 10
1343.14002609
 20
803.16993602
 10
1343.18713196
 20
803.47476531
  0
HATCH
  5
19E
100
AcDbEntity
  8
DETAIL_1
 62
    28
  6
CONTINUOUS
100
AcDbHatch
 10
0.0
 20
0.0
 30
0.0
210
0.0
220
0.0
230
1.0
  2
SOLID
 70
     1
 71
     1
 91
        1
 92
        7
 72
     0
 73
     1
 93
      336
 10
1343.22775111
 20
803.73761811
 10
1343.26095689
 20
803.95249777
 10
1343.2858226
 20
804.11340766
 10
1343.30142159
 20
804.21435113
 10
1343.30682719
 20
804.24933154
 10
1342.91714262
 20
804.47773838
 10
1342.52021767
 20
804.69944368
 10
1342.11583331
 20
804.91417913
 10
1341.70377049
 20
805.12167643
 10
1341.28381015
 20
805.32166729
 10
1340.85573326
 20
805.51388341
 10
1340.41932077
 20
805.69805648
 10
1339.97435364
 20
805.8739182
 10
1339.52061282
 20
806.04120029
 10
1339.05787926
 20
806.19963443
 10
1338.58593392
 20
806.34895233
 10
1338.10455776
 20
806.48888568
 10
1337.61353173
 20
806.6191662
 10
1337.11263678
 20
806.73952558
 10
1336.60165386
 20
806.84969551
 10
1336.08036395
 20
806.94940771
 10
1335.54854798
 20
807.03839387
 10
1335.00598691
 20
807.11638569
 10
1334.4524617
 20
807.18311487
 10
1333.8877533
 20
807.23831311
 10
1333.31164267
 20
807.28171212
 10
1332.72391077
 20
807.31304359
 10
1332.12433853
 20
807.33203923
 10
1331.51270694
 20
807.33843073
 10
1330.06276451
 20
807.29632627
 10
1328.66246688
 20
807.17124748
 10
1327.31288578
 20
806.96504622
 10
1326.01509292
 20
806.67957434
 10
1324.77016
 20
806.3166837
 10
1323.57915874
 20
805.87822617
 10
1322.44316086
 20
805.36605361
 10
1321.36323805
 20
804.78201788
 10
1320.34046205
 20
804.12797083
 10
1319.37590456
 20
803.40576433
 10
1318.47063729
 20
802.61725023
 10
1317.62573197
 20
801.76428041
 10
1316.84226029
 20
800.84870671
 10
1316.12129397
 20
799.87238101
 10
1315.46390473
 20
798.83715515
 10
1314.87116427
 20
797.744881
 10
1314.34414432
 20
796.59741043
 10
1313.88391658
 20
795.39659528
 10
1313.49155277
 20
794.14428743
 10
1313.1681246
 20
792.84233872
 10
1312.91470378
 20
791.49260103
 10
1312.73236203
 20
790.09692622
 10
1312.62217106
 20
788.65716613
 10
1312.58520257
 20
787.17517264
 10
1312.62021801
 20
785.70043421
 10
1312.72492324
 20
784.26788215
 10
1312.89880667
 20
782.87934507
 10
1313.1413567
 20
781.53665157
 10
1313.45206172
 20
780.24163022
 10
1313.83041014
 20
778.99610963
 10
1314.27589036
 20
777.8019184
 10
1314.78799078
 20
776.66088511
 10
1315.36619978
 20
775.57483837
 10
1316.01000579
 20
774.54560676
 10
1316.71889718
 20
773.57501888
 10
1317.49236237
 20
772.66490333
 10
1318.32988976
 20
771.8170887
 10
1319.23096773
 20
771.03340359
 10
1320.1950847
 20
770.31567658
 10
1321.22172906
 20
769.66573628
 10
1322.3103892
 20
769.08541128
 10
1323.46055354
 20
768.57653017
 10
1324.67171047
 20
768.14092155
 10
1325.94334838
 20
767.78041401
 10
1327.27495569
 20
767.49683615
 10
1328.66602078
 20
767.29201656
 10
1330.11603206
 20
767.16778384
 10
1331.62447792
 20
767.12596658
 10
1332.26826672
 20
767.1341012
 10
1332.90764046
 20
767.15827736
 10
1333.54228283
 20
767.19815349
 10
1334.1718775
 20
767.25338804
 10
1334.79610816
 20
767.32363943
 10
1335.41465849
 20
767.40856612
 10
1336.02721219
 20
767.50782653
 10
1336.63345292
 20
767.62107911
 10
1337.23306438
 20
767.74798228
 10
1337.82573025
 20
767.8881945
 10
1338.41113422
 20
768.0413742
 10
1338.98895996
 20
768.20717981
 10
1339.55889116
 20
768.38526977
 10
1340.12061151
 20
768.57530253
 10
1340.67380468
 20
768.77693652
 10
1341.21815437
 20
768.98983017
 10
1341.75334426
 20
769.21364193
 10
1342.27905802
 20
769.44803023
 10
1342.79497935
 20
769.69265352
 10
1343.30079193
 20
769.94717022
 10
1343.79617944
 20
770.21123879
 10
1344.28082557
 20
770.48451764
 10
1344.75441399
 20
770.76666523
 10
1345.2166284
 20
771.05733999
 10
1345.2166284
 20
771.15090407
 10
1345.2166284
 20
771.42090328
 10
1345.2166284
 20
771.85129804
 10
1345.2166284
 20
772.42604882
 10
1345.2166284
 20
773.12911605
 10
1345.2166284
 20
773.94446017
 10
1345.2166284
 20
774.85604163
 10
1345.2166284
 20
775.84782088
 10
1345.2166284
 20
776.90375835
 10
1345.2166284
 20
778.00781449
 10
1345.2166284
 20
779.14394974
 10
1345.2166284
 20
780.29612455
 10
1345.2166284
 20
781.44829936
 10
1345.2166284
 20
782.58443461
 10
1345.2166284
 20
783.68849075
 10
1345.2166284
 20
784.74442822
 10
1345.2166284
 20
785.73620747
 10
1345.2166284
 20
786.64778893
 10
1345.2166284
 20
787.46313305
 10
1345.2166284
 20
788.16620028
 10
1345.2166284
 20
788.74095106
 10
1345.2166284
 20
789.17134582
 10
1345.2166284
 20
789.44134503
 10
1345.2166284
 20
789.53490911
 10
1345.13784884
 20
789.53490911
 10
1344.91051355
 20
789.53490911
 10
1344.54812758
 20
789.53490911
 10
1344.06419602
 20
789.53490911
 10
1343.47222391
 20
789.53490911
 10
1342.78571634
 20
789.53490911
 10
1342.01817837
 20
789.53490911
 10
1341.18311506
 20
789.53490911
 10
1340.29403148
 20
789.53490911
 10
1339.3644327
 20
789.53490911
 10
1338.40782379
 20
789.53490911
 10
1337.43770981
 20
789.53490911
 10
1336.46759583
 20
789.53490911
 10
1335.51098692
 20
789.53490911
 10
1334.58138814
 20
789.53490911
 10
1333.69230456
 20
789.53490911
 10
1332.85724125
 20
789.53490911
 10
1332.08970328
 20
789.53490911
 10
1331.4031957
 20
789.53490911
 10
1330.8112236
 20
789.53490911
 10
1330.32729203
 20
789.53490911
 10
1329.96490607
 20
789.53490911
 10
1329.73757077
 20
789.53490911
 10
1329.65879121
 20
789.53490911
 10
1329.66334208
 20
789.50475677
 10
1329.67647456
 20
789.41774573
 10
1329.69740852
 20
789.27904496
 10
1329.72536381
 20
789.09382345
 10
1329.75956027
 20
788.86725015
 10
1329.79921777
 20
788.60449404
 10
1329.84355616
 20
788.3107241
 10
1329.89179528
 20
787.9911093
 10
1329.943155
 20
787.6508186
 10
1329.99685516
 20
787.29502099
 10
1330.05211561
 20
786.92888544
 10
1330.10815621
 20
786.55758091
 10
1330.16419681
 20
786.18627638
 10
1330.21945726
 20
785.82014082
 10
1330.27315741
 20
785.46434321
 10
1330.32451713
 20
785.12405251
 10
1330.37275625
 20
784.80443771
 10
1330.41709464
 20
784.51066777
 10
1330.45675214
 20
784.24791166
 10
1330.49094861
 20
784.02133837
 10
1330.51890389
 20
783.83611685
 10
1330.53983785
 20
783.69741608
 10
1330.55297034
 20
783.61040505
 10
1330.5575212
 20
783.58025271
 10
1330.59733545
 20
783.58025271
 10
1330.71222802
 20
783.58025271
 10
1330.8953736
 20
783.58025271
 10
1331.13994689
 20
783.58025271
 10
1331.43912259
 20
783.58025271
 10
1331.78607539
 20
783.58025271
 10
1332.17398
 20
783.58025271
 10
1332.59601112
 20
783.58025271
 10
1333.04534344
 20
783.58025271
 10
1333.51515166
 20
783.58025271
 10
1333.99861049
 20
783.58025271
 10
1334.48889461
 20
783.58025271
 10
1334.97917874
 20
783.58025271
 10
1335.46263757
 20
783.58025271
 10
1335.93244579
 20
783.58025271
 10
1336.38177811
 20
783.58025271
 10
1336.80380923
 20
783.58025271
 10
1337.19171384
 20
783.58025271
 10
1337.53866664
 20
783.58025271
 10
1337.83784234
 20
783.58025271
 10
1338.08241563
 20
783.58025271
 10
1338.26556121
 20
783.58025271
 10
1338.38045378
 20
783.58025271
 10
1338.42026803
 20
783.58025271
 10
1338.42026803
 20
783.53674809
 10
1338.42026803
 20
783.41120622
 10
1338.42026803
 20
783.211085
 10
1338.42026803
 20
782.94384239
 10
1338.42026803
 20
782.61693631
 10
1338.42026803
 20
782.23782469
 10
1338.42026803
 20
781.81396548
 10
1338.42026803
 20
781.35281659
 10
1338.42026803
 20
780.86183598
 10
1338.42026803
 20
780.34848156
 10
1338.42026803
 20
779.82021128
 10
1338.42026803
 20
779.28448306
 10
1338.42026803
 20
778.74875484
 10
1338.42026803
 20
778.22048456
 10
1338.42026803
 20
777.70713014
 10
1338.42026803
 20
777.21614952
 10
1338.42026803
 20
776.75500064
 10
1338.42026803
 20
776.33114143
 10
1338.42026803
 20
775.95202981
 10
1338.42026803
 20
775.62512373
 10
1338.42026803
 20
775.35788112
 10
1338.42026803
 20
775.1577599
 10
1338.42026803
 20
775.03221802
 10
1338.42026803
 20
774.98871341
 10
1338.18149177
 20
774.86461261
 10
1337.94238508
 20
774.74525259
 10
1337.70260567
 20
774.63068137
 10
1337.46181122
 20
774.52094697
 10
1337.21965943
 20
774.4160974
 10
1336.975808
 20
774.31618068
 10
1336.72991463
 20
774.22124482
 10
1336.481637
 20
774.13133785
 10
1336.23063281
 20
774.04650778
 10
1335.97655977
 20
773.96680262
 10
1335.71907556
 20
773.89227039
 10
1335.45783788
 20
773.82295912
 10
1335.19250442
 20
773.75891681
 10
1334.92273289
 20
773.70019148
 10
1334.64818097
 20
773.64683115
 10
1334.36850636
 20
773.59888384
 10
1334.08336676
 20
773.55639756
 10
1333.79241987
 20
773.51942034
 10
1333.49532337
 20
773.48800017
 10
1333.19173496
 20
773.46218509
 10
1332.88131234
 20
773.44202311
 10
1332.56371321
 20
773.42756225
 10
1332.23859525
 20
773.41885052
 10
1331.90561617
 20
773.41593594
 10
1330.94994449
 20
773.44440836
 10
1330.03466129
 20
773.52904546
 10
1329.15979132
 20
773.66867702
 10
1328.32535932
 20
773.86213282
 10
1327.53139005
 20
774.10824264
 10
1326.77790826
 20
774.40583626
 10
1326.0649387
 20
774.75374346
 10
1325.39250613
 20
775.15079402
 10
1324.76063529
 20
775.5958177
 10
1324.16935093
 20
776.08764431
 10
1323.6186778
 20
776.6251036
 10
1323.10864066
 20
777.20702536
 10
1322.63926426
 20
777.83223938
 10
1322.21057334
 20
778.49957542
 10
1321.82259266
 20
779.20786326
 10
1321.47534697
 20
779.95593269
 10
1321.16886102
 20
780.74261349
 10
1320.90315956
 20
781.56673543
 10
1320.67826735
 20
782.42712829
 10
1320.49420912
 20
783.32262185
 10
1320.35100964
 20
784.25204588
 10
1320.24869365
 20
785.21423018
 10
1320.1872859
 20
786.20800451
 10
1320.16681116
 20
787.23219865
 10
1320.18670079
 20
788.24962579
 10
1320.24635321
 20
789.23719668
 10
1320.34574364
 20
790.19371661
 10
1320.48484735
 20
791.11799086
 10
1320.66363958
 20
792.0088247
 10
1320.88209558
 20
792.8650234
 10
1321.1401906
 20
793.68539223
 10
1321.43789989
 20
794.46873649
 10
1321.7751987
 20
795.21386143
 10
1322.15206228
 20
795.91957234
 10
1322.56846587
 20
796.58467449
 10
1323.02438473
 20
797.20797316
 10
1323.5197941
 20
797.78827362
 10
1324.05466924
 20
798.32438114
 10
1324.62898539
 20
798.81510101
 10
1325.2427178
 20
799.25923849
 10
1325.89584172
 20
799.65559887
 10
1326.58833241
 20
800.00298741
 10
1327.3201651
 20
800.3002094
 10
1328.09131505
 20
800.5460701
 10
1328.90175751
 20
800.7393748
 10
1329.75146773
 20
800.87892877
 10
1330.64042095
 20
800.96353728
 10
1331.56859243
 20
800.99200561
 10
1332.09806255
 20
800.98389129
 10
1332.61943865
 20
800.9598572
 10
1333.13281823
 20
800.92036668
 10
1333.63829881
 20
800.86588308
 10
1334.13597792
 20
800.79686972
 10
1334.62595308
 20
800.71378995
 10
1335.10832179
 20
800.61710709
 10
1335.58318159
 20
800.50728449
 10
1336.05062998
 20
800.38478548
 10
1336.51076449
 20
800.25007341
 10
1336.96368263
 20
800.10361159
 10
1337.40948193
 20
799.94586338
 10
1337.8482599
 20
799.77729211
 10
1338.28011406
 20
799.59836111
 10
1338.70514193
 20
799.40953372
 10
1339.12344103
 20
799.21127328
 10
1339.53510887
 20
799.00404312
 10
1339.94024298
 20
798.78830658
 10
1340.33894087
 20
798.56452699
 10
1340.73130006
 20
798.3331677
 10
1341.11741807
 20
798.09469204
 10
1341.49739242
 20
797.84956334
 10
1341.87132062
 20
797.59824494
 10
1342.2393002
 20
797.34120018
 10
1342.24470579
 20
797.3761806
 10
1342.26030478
 20
797.47712407
 10
1342.2851705
 20
797.63803395
 10
1342.31837627
 20
797.85291362
 10
1342.35899543
 20
798.11576642
 10
1342.40610129
 20
798.42059571
 10
1342.45876719
 20
798.76140485
 10
1342.51606646
 20
799.1321972
 10
1342.57707241
 20
799.52697612
 10
1342.64085838
 20
799.93974497
 10
1342.7064977
 20
800.36450709
 10
1342.77306369
 20
800.79526586
 10
1342.83962968
 20
801.22602463
 10
1342.905269
 20
801.65078676
 10
1342.96905498
 20
802.0635556
 10
1343.03006093
 20
802.45833452
 10
1343.08736019
 20
802.82912687
 10
1343.14002609
 20
803.16993602
 10
1343.18713196
 20
803.47476531
 97
        1
330
19D
 75
     0
 76
     2
 47
0.775229
 98
        1
 10
0.0
 20
0.0
  0
LWPOLYLINE
  5
19F
102
{ACAD_REACTORS
330
1A0
102
}
100
AcDbEntity
  8
DETAIL_1
 62
    28
  6
CONTINUOUS
370
    -3
100
AcDbPolyline
 90
       12
 70
     1
 43
0.0
 10
1399.58466005
 20
806.60849775
 10
1392.11539271
 20
806.60849775
 10
1392.11539271
 20
791.33179881
 10
1375.6593958
 20
791.33179881
 10
1375.6593958
 20
806.60849775
 10
1368.18955821
 20
806.60849775
 10
1368.18955821
 20
767.85475904
 10
1375.6593958
 20
767.85475904
 10
1375.6593958
 20
784.70480571
 10
1392.11539271
 20
784.70480571
 10
1392.11539271
 20
767.85475904
 10
1399.58466005
 20
767.85475904
  0
HATCH
  5
1A0
100
AcDbEntity
  8
DETAIL_1
 62
    28
  6
CONTINUOUS
100
AcDbHatch
 10
0.0
 20
0.0
 30
0.0
210
0.0
220
0.0
230
1.0
  2
SOLID
 70
     1
 71
     1
 91
        1
 92
        7
 72
     0
 73
     1
 93
       12
 10
1399.58466005
 20
806.60849775
 10
1392.11539271
 20
806.60849775
 10
1392.11539271
 20
791.33179881
 10
1375.6593958
 20
791.33179881
 10
1375.6593958
 20
806.60849775
 10
1368.18955821
 20
806.60849775
 10
1368.18955821
 20
767.85475904
 10
1375.6593958
 20
767.85475904
 10
1375.6593958
 20
784.70480571
 10
1392.11539271
 20
784.70480571
 10
1392.11539271
 20
767.85475904
 10
1399.58466005
 20
767.85475904
 97
        1
330
19F
 75
     0
 76
     2
 47
0.775229
 98
        1
 10
0.0
 20
0.0
  0
LWPOLYLINE
  5
1A1
102
{ACAD_REACTORS
330
1A2
102
}
100
AcDbEntity
  8
DETAIL_1
 62
    42
  6
CONTINUOUS
370
    -3
100
AcDbPolyline
 90
        4
 70
     1
 43
0.0
 10
1535.67895364
 20
821.72267254
 10
1532.3646017
 20
821.1609663
 10
1532.3646017
 20
743.98024795
 10
1535.67895364
 20
744.54138393
  0
HATCH
  5
1A2
100
AcDbEntity
  8
DETAIL_1
 62
    42
  6
CONTINUOUS
100
AcDbHatch
 10
0.0
 20
0.0
 30
0.0
210
0.0
220
0.0
230
1.0
  2
SOLID
 70
     1
 71
     1
 91
        1
 92
        7
 72
     0
 73
     1
 93
        4
 10
1535.67895364
 20
821.72267254
 10
1532.3646017
 20
821.1609663
 10
1532.3646017
 20
743.98024795
 10
1535.67895364
 20
744.54138393
 97
        1
330
1A1
 75
     0
 76
     2
 47
0.775229
 98
        1
 10
0.0
 20
0.0
  0
LWPOLYLINE
  5
1A3
102
{ACAD_REACTORS
330
1A4
102
}
100
AcDbEntity
  8
DETAIL_1
 62
    28
  6
CONTINUOUS
370
    -3
100
AcDbPolyline
 90
       11
 70
     1
 43
0.0
 10
1566.62697153
 20
767.85475904
 10
1562.75148361
 20
767.85475904
 10
1562.75148361
 20
806.60849775
 10
1566.62697153
 20
806.60849775
 10
1566.62697153
 20
788.97263261
 10
1584.65517565
 20
806.60849775
 10
1589.59819056
 20
806.60849775
 10
1570.95182444
 20
788.52326761
 10
1590.66457702
 20
768.36115004
 10
1586.39675012
 20
767.46242006
 10
1566.62697153
 20
787.84922013
  0
HATCH
  5
1A4
100
AcDbEntity
  8
DETAIL_1
 62
    28
  6
CONTINUOUS
100
AcDbHatch
 10
0.0
 20
0.0
 30
0.0
210
0.0
220
0.0
230
1.0
  2
SOLID
 70
     1
 71
     1
 91
        1
 92
        7
 72
     0
 73
     1
 93
       11
 10
1566.62697153
 20
767.85475904
 10
1562.75148361
 20
767.85475904
 10
1562.75148361
 20
806.60849775
 10
1566.62697153
 20
806.60849775
 10
1566.62697153
 20
788.97263261
 10
1584.65517565
 20
806.60849775
 10
1589.59819056
 20
806.60849775
 10
1570.95182444
 20
788.52326761
 10
1590.66457702
 20
768.36115004
 10
1586.39675012
 20
767.46242006
 10
1566.62697153
 20
787.84922013
 97
        1
330
1A3
 75
     0
 76
     2
 47
0.775229
 98
        1
 10
0.0
 20
0.0
  0
LWPOLYLINE
  5
1A5
102
{ACAD_REACTORS
330
1A6
102
}
100
AcDbEntity
  8
DETAIL_1
 62
    28
  6
CONTINUOUS
370
    -3
100
AcDbPolyline
 90
        4
 70
     1
 43
0.0
 10
1611.38098745
 20
816.1563633
 10
1606.77442602
 20
816.1563633
 10
1606.77442602
 20
811.1574629
 10
1611.38098745
 20
811.1574629
  0
HATCH
  5
1A6
100
AcDbEntity
  8
DETAIL_1
 62
    28
  6
CONTINUOUS
100
AcDbHatch
 10
0.0
 20
0.0
 30
0.0
210
0.0
220
0.0
230
1.0
  2
SOLID
 70
     1
 71
     1
 91
        1
 92
        7
 72
     0
 73
     1
 93
        4
 10
1611.38098745
 20
816.1563633
 10
1606.77442602
 20
816.1563633
 10
1606.77442602
 20
811.1574629
 10
1611.38098745
 20
811.1574629
 97
        1
330
1A5
 75
     0
 76
     2
 47
0.775229
 98
        1
 10
0.0
 20
0.0
  0
LWPOLYLINE
  5
1A7
102
{ACAD_REACTORS
330
1A8
102
}
100
AcDbEntity
  8
DETAIL_1
 62
    28
  6
CONTINUOUS
370
    -3
100
AcDbPolyline
 90
        4
 70
     1
 43
0.0
 10
1621.09593922
 20
816.1563633
 10
1616.43463282
 20
816.1563633
 10
1616.43463282
 20
811.1574629
 10
1621.09593922
 20
811.1574629
  0
HATCH
  5
1A8
100
AcDbEntity
  8
DETAIL_1
 62
    28
  6
CONTINUOUS
100
AcDbHatch
 10
0.0
 20
0.0
 30
0.0
210
0.0
220
0.0
230
1.0
  2
SOLID
 70
     1
 71
     1
 91
        1
 92
        7
 72
     0
 73
     1
 93
        4
 10
1621.09593922
 20
816.1563633
 10
1616.43463282
 20
816.1563633
 10
1616.43463282
 20
811.1574629
 10
1621.09593922
 20
811.1574629
 97
        1
330
1A7
 75
     0
 76
     2
 47
0.775229
 98
        1
 10
0.0
 20
0.0
  0
LWPOLYLINE
  5
1A9
102
{ACAD_REACTORS
330
1AA
102
}
100
AcDbEntity
  8
DETAIL_1
 62
    28
  6
CONTINUOUS
370
    -3
100
AcDbPolyline
 90
        6
 70
     1
 43
0.0
 10
1643.05893832
 20
806.60849775
 10
1639.1834504
 20
806.60849775
 10
1639.1834504
 20
767.85475904
 10
1658.55974949
 20
767.85475904
 10
1657.99861351
 20
771.33790798
 10
1643.05893832
 20
771.33790798
  0
HATCH
  5
1AA
100
AcDbEntity
  8
DETAIL_1
 62
    28
  6
CONTINUOUS
100
AcDbHatch
 10
0.0
 20
0.0
 30
0.0
210
0.0
220
0.0
230
1.0
  2
SOLID
 70
     1
 71
     1
 91
        1
 92
        7
 72
     0
 73
     1
 93
        6
 10
1643.05893832
 20
806.60849775
 10
1639.1834504
 20
806.60849775
 10
1639.1834504
 20
767.85475904
 10
1658.55974949
 20
767.85475904
 10
1657.99861351
 20
771.33790798
 10
1643.05893832
 20
771.33790798
 97
        1
330
1A9
 75
     0
 76
     2
 47
0.775229
 98
        1
 10
0.0
 20
0.0
  0
LWPOLYLINE
  5
1AB
102
{ACAD_REACTORS
330
1AC
102
}
100
AcDbEntity
  8
DETAIL_1
 62
    28
  6
CONTINUOUS
370
    -3
100
AcDbPolyline
 90
        4
 70
     1
 43
0.0
 10
1670.35501026
 20
806.60849775
 10
1666.48066286
 20
806.60849775
 10
1666.48066286
 20
767.85475904
 10
1670.35501026
 20
767.85475904
  0
HATCH
  5
1AC
100
AcDbEntity
  8
DETAIL_1
 62
    28
  6
CONTINUOUS
100
AcDbHatch
 10
0.0
 20
0.0
 30
0.0
210
0.0
220
0.0
230
1.0
  2
SOLID
 70
     1
 71
     1
 91
        1
 92
        7
 72
     0
 73
     1
 93
        4
 10
1670.35501026
 20
806.60849775
 10
1666.48066286
 20
806.60849775
 10
1666.48066286
 20
767.85475904
 10
1670.35501026
 20
767.85475904
 97
        1
330
1AB
 75
     0
 76
     2
 47
0.775229
 98
        1
 10
0.0
 20
0.0
  0
LWPOLYLINE
  5
1AD
102
{ACAD_REACTORS
330
1AE
102
}
100
AcDbEntity
  8
DETAIL_1
 62
    28
  6
CONTINUOUS
370
    -3
100
AcDbPolyline
 90
       10
 70
     1
 43
0.0
 10
1685.57069136
 20
767.85475904
 10
1681.91988593
 20
767.85475904
 10
1681.91988593
 20
806.60849775
 10
1685.57069136
 20
806.60849775
 10
1707.5302689
 20
774.98871341
 10
1707.5302689
 20
806.60849775
 10
1711.18107432
 20
806.60849775
 10
1711.18107432
 20
767.85475904
 10
1708.20431638
 20
767.85475904
 10
1685.57069136
 20
800.48675513
  0
HATCH
  5
1AE
100
AcDbEntity
  8
DETAIL_1
 62
    28
  6
CONTINUOUS
100
AcDbHatch
 10
0.0
 20
0.0
 30
0.0
210
0.0
220
0.0
230
1.0
  2
SOLID
 70
     1
 71
     1
 91
        1
 92
        7
 72
     0
 73
     1
 93
       10
 10
1685.57069136
 20
767.85475904
 10
1681.91988593
 20
767.85475904
 10
1681.91988593
 20
806.60849775
 10
1685.57069136
 20
806.60849775
 10
1707.5302689
 20
774.98871341
 10
1707.5302689
 20
806.60849775
 10
1711.18107432
 20
806.60849775
 10
1711.18107432
 20
767.85475904
 10
1708.20431638
 20
767.85475904
 10
1685.57069136
 20
800.48675513
 97
        1
330
1AD
 75
     0
 76
     2
 47
0.775229
 98
        1
 10
0.0
 20
0.0
  0
LWPOLYLINE
  5
1AF
102
{ACAD_REACTORS
330
1B0
102
}
100
AcDbEntity
  8
DETAIL_1
 62
    28
  6
CONTINUOUS
370
    -3
100
AcDbPolyline
 90
      336
 70
     1
 43
0.0
 10
1777.79373396
 20
790.81663115
 10
1777.97762479
 20
791.93464298
 10
1778.21241727
 20
793.01189904
 10
1778.49737929
 20
794.04698555
 10
1778.83177869
 20
795.03848874
 10
1779.21488337
 20
795.98499484
 10
1779.64596118
 20
796.88509009
 10
1780.12427999
 20
797.7373607
 10
1780.64910767
 20
798.54039291
 10
1781.2197121
 20
799.29277295
 10
1781.83536114
 20
799.99308706
 10
1782.49532265
 20
800.63992146
 10
1783.19886452
 20
801.23186237
 10
1783.94525461
 20
801.76749604
 10
1784.73376078
 20
802.24540869
 10
1785.56365091
 20
802.66418655
 10
1786.43419286
 20
803.02241586
 10
1787.34465451
 20
803.31868283
 10
1788.29430373
 20
803.55157371
 10
1789.28240837
 20
803.71967471
 10
1790.30823632
 20
803.82157208
 10
1791.37105545
 20
803.85585204
 10
1791.92109982
 20
803.84772435
 10
1792.46185815
 20
803.82358482
 10
1792.99342996
 20
803.78379878
 10
1793.51591472
 20
803.72873155
 10
1794.02941195
 20
803.65874846
 10
1794.53402114
 20
803.57421482
 10
1795.02984179
 20
803.47549595
 10
1795.5169734
 20
803.36295719
 10
1795.99551547
 20
803.23696386
 10
1796.46556749
 20
803.09788127
 10
1796.92722896
 20
802.94607475
 10
1797.38059938
 20
802.78190963
 10
1797.82577826
 20
802.60575122
 10
1798.26286509
 20
802.41796486
 10
1798.69195936
 20
802.21891585
 10
1799.11316058
 20
802.00896953
 10
1799.52656824
 20
801.78849122
 10
1799.93228185
 20
801.55784624
 10
1800.3304009
 20
801.31739991
 10
1800.72102489
 20
801.06751756
 10
1801.10425332
 20
800.80856451
 10
1801.48018568
 20
800.54090608
 10
1801.84892148
 20
800.2649076
 10
1802.21056022
 20
799.98093438
 10
1802.21397336
 20
800.00112738
 10
1802.22382273
 20
800.05939861
 10
1802.2395232
 20
800.15228642
 10
1802.26048966
 20
800.27632913
 10
1802.28613701
 20
800.42806511
 10
1802.31588014
 20
800.60403269
 10
1802.34913393
 20
800.80077021
 10
1802.38531327
 20
801.01481602
 10
1802.42383306
 20
801.24270845
 10
1802.46410817
 20
801.48098586
 10
1802.50555351
 20
801.72618659
 10
1802.54758396
 20
801.97484897
 10
1802.58961441
 20
802.22351135
 10
1802.63105975
 20
802.46871207
 10
1802.67133487
 20
802.70698948
 10
1802.70985465
 20
802.93488191
 10
1802.746034
 20
803.14892772
 10
1802.77928779
 20
803.34566524
 10
1802.80903091
 20
803.52163282
 10
1802.83467826
 20
803.6733688
 10
1802.85564473
 20
803.79741152
 10
1802.8713452
 20
803.89029932
 10
1802.88119456
 20
803.94857055
 10
1802.88460771
 20
803.96876355
 10
1802.50868681
 20
804.2308004
 10
1802.12501592
 20
804.48333489
 10
1801.73344851
 20
804.72622049
 10
1801.33383805
 20
804.9593107
 10
1800.92603803
 20
805.18245897
 10
1800.50990191
 20
805.39551878
 10
1800.08528317
 20
805.59834362
 10
1799.65203529
 20
805.79078695
 10
1799.21001174
 20
805.97270224
 10
1798.75906599
 20
806.14394298
 10
1798.29905152
 20
806.30436264
 10
1797.82982181
 20
806.45381468
 10
1797.35123033
 20
806.5921526
 10
1796.86313055
 20
806.71922986
 10
1796.36537595
 20
806.83489993
 10
1795.85782
 20
806.9390163
 10
1795.34031618
 20
807.03143244
 10
1794.81271797
 20
807.11200181
 10
1794.27487883
 20
807.1805779
 10
1793.72665225
 20
807.23701419
 10
1793.16789169
 20
807.28116414
 10
1792.59845064
 20
807.31288123
 10
1792.01818256
 20
807.33201893
 10
1791.42694094
 20
807.33843073
 10
1790.09212233
 20
807.2957627
 10
1788.79846938
 20
807.16909119
 10
1787.54737209
 20
806.96041508
 10
1786.34022048
 20
806.67173326
 10
1785.17840454
 20
806.3050446
 10
1784.0633143
 20
805.86234799
 10
1782.99633975
 20
805.34564231
 10
1781.97887091
 20
804.75692643
 10
1781.01229779
 20
804.09819924
 10
1780.0980104
 20
803.37145961
 10
1779.23739874
 20
802.57870644
 10
1778.43185283
 20
801.72193859
 10
1777.68276267
 20
800.80315496
 10
1776.99151828
 20
799.82435441
 10
1776.35950966
 20
798.78753583
 10
1775.78812681
 20
797.69469811
 10
1775.27875976
 20
796.54784012
 10
1774.83279851
 20
795.34896074
 10
1774.45163307
 20
794.10005885
 10
1774.13665344
 20
792.80313334
 10
1773.88924965
 20
791.46018308
 10
1773.71081168
 20
790.07320696
 10
1773.60272957
 20
788.64420385
 10
1773.5663933
 20
787.17517264
 10
1773.6013535
 20
785.71326555
 10
1773.70564832
 20
784.29136182
 10
1773.87839911
 20
782.91143557
 10
1774.11872721
 20
781.57546094
 10
1774.42575397
 20
780.28541204
 10
1774.79860072
 20
779.04326302
 10
1775.23638882
 20
777.850988
 10
1775.73823961
 20
776.71056111
 10
1776.30327443
 20
775.62395648
 10
1776.93061463
 20
774.59314824
 10
1777.61938154
 20
773.62011052
 10
1778.36869652
 20
772.70681745
 10
1779.17768091
 20
771.85524317
 10
1780.04545604
 20
771.06736179
 10
1780.97114328
 20
770.34514745
 10
1781.95386395
 20
769.69057428
 10
1782.99273941
 20
769.10561641
 10
1784.08689099
 20
768.59224797
 10
1785.23544004
 20
768.15244308
 10
1786.43750791
 20
767.78817589
 10
1787.69221594
 20
767.50142051
 10
1788.99868547
 20
767.29415108
 10
1790.35603785
 20
767.16834172
 10
1791.76339442
 20
767.12596658
 10
1792.38388754
 20
767.1341012
 10
1792.99572329
 20
767.15827736
 10
1793.59902395
 20
767.19815349
 10
1794.19391179
 20
767.25338804
 10
1794.78050908
 20
767.32363943
 10
1795.35893808
 20
767.40856612
 10
1795.92932107
 20
767.50782653
 10
1796.49178031
 20
767.62107911
 10
1797.04643808
 20
767.74798228
 10
1797.59341664
 20
767.8881945
 10
1798.13283827
 20
768.0413742
 10
1798.66482522
 20
768.20717981
 10
1799.18949978
 20
768.38526977
 10
1799.70698421
 20
768.57530253
 10
1800.21740078
 20
768.77693652
 10
1800.72087176
 20
768.98983017
 10
1801.21751942
 20
769.21364193
 10
1801.70746603
 20
769.44803023
 10
1802.19083386
 20
769.69265352
 10
1802.66774517
 20
769.94717022
 10
1803.13832224
 20
770.21123879
 10
1803.60268733
 20
770.48451764
 10
1804.06096272
 20
770.76666523
 10
1804.51327067
 20
771.05733999
 10
1804.51327067
 20
771.1440749
 10
1804.51327067
 20
771.39436704
 10
1804.51327067
 20
771.79334758
 10
1804.51327067
 20
772.32614769
 10
1804.51327067
 20
772.97789852
 10
1804.51327067
 20
773.73373123
 10
1804.51327067
 20
774.57877697
 10
1804.51327067
 20
775.49816693
 10
1804.51327067
 20
776.47703224
 10
1804.51327067
 20
777.50050407
 10
1804.51327067
 20
778.55371358
 10
1804.51327067
 20
779.62179193
 10
1804.51327067
 20
780.68987028
 10
1804.51327067
 20
781.7430798
 10
1804.51327067
 20
782.76655163
 10
1804.51327067
 20
783.74541694
 10
1804.51327067
 20
784.66480689
 10
1804.51327067
 20
785.50985264
 10
1804.51327067
 20
786.26568535
 10
1804.51327067
 20
786.91743618
 10
1804.51327067
 20
787.45023628
 10
1804.51327067
 20
787.84921683
 10
1804.51327067
 20
788.09950897
 10
1804.51327067
 20
788.18624387
 10
1804.44387582
 20
788.18624387
 10
1804.24362211
 20
788.18624387
 10
1803.92440579
 20
788.18624387
 10
1803.49812314
 20
788.18624387
 10
1802.9766704
 20
788.18624387
 10
1802.37194384
 20
788.18624387
 10
1801.69583972
 20
788.18624387
 10
1800.9602543
 20
788.18624387
 10
1800.17708384
 20
788.18624387
 10
1799.35822459
 20
788.18624387
 10
1798.51557283
 20
788.18624387
 10
1797.66102481
 20
788.18624387
 10
1796.80647679
 20
788.18624387
 10
1795.96382502
 20
788.18624387
 10
1795.14496578
 20
788.18624387
 10
1794.36179532
 20
788.18624387
 10
1793.6262099
 20
788.18624387
 10
1792.95010578
 20
788.18624387
 10
1792.34537922
 20
788.18624387
 10
1791.82392648
 20
788.18624387
 10
1791.39764383
 20
788.18624387
 10
1791.07842751
 20
788.18624387
 10
1790.8781738
 20
788.18624387
 10
1790.80877895
 20
788.18624387
 10
1790.81162612
 20
788.16861506
 10
1790.81984226
 20
788.11774335
 10
1790.83293926
 20
788.03665082
 10
1790.85042906
 20
787.92835956
 10
1790.87182355
 20
787.79589165
 10
1790.89663465
 20
787.64226916
 10
1790.92437427
 20
787.47051418
 10
1790.95455434
 20
787.28364879
 10
1790.98668675
 20
787.08469508
 10
1791.02028342
 20
786.87667512
 10
1791.05485626
 20
786.66261099
 10
1791.0899172
 20
786.44552479
 10
1791.12497813
 20
786.22843858
 10
1791.15955098
 20
786.01437446
 10
1791.19314765
 20
785.8063545
 10
1791.22528006
 20
785.60740079
 10
1791.25546012
 20
785.4205354
 10
1791.28319974
 20
785.24878042
 10
1791.30801084
 20
785.09515793
 10
1791.32940534
 20
784.96269001
 10
1791.34689513
 20
784.85439875
 10
1791.35999214
 20
784.77330622
 10
1791.36820827
 20
784.72243452
 10
1791.37105545
 20
784.70480571
 10
1791.41826196
 20
784.70480571
 10
1791.55448649
 20
784.70480571
 10
1791.77163646
 20
784.70480571
 10
1792.06161936
 20
784.70480571
 10
1792.41634262
 20
784.70480571
 10
1792.8277137
 20
784.70480571
 10
1793.28764005
 20
784.70480571
 10
1793.78802913
 20
784.70480571
 10
1794.3207884
 20
784.70480571
 10
1794.87782531
 20
784.70480571
 10
1795.4510473
 20
784.70480571
 10
1796.03236184
 20
784.70480571
 10
1796.61367639
 20
784.70480571
 10
1797.18689838
 20
784.70480571
 10
1797.74393529
 20
784.70480571
 10
1798.27669455
 20
784.70480571
 10
1798.77708364
 20
784.70480571
 10
1799.23700999
 20
784.70480571
 10
1799.64838107
 20
784.70480571
 10
1800.00310433
 20
784.70480571
 10
1800.29308722
 20
784.70480571
 10
1800.5102372
 20
784.70480571
 10
1800.64646173
 20
784.70480571
 10
1800.69366824
 20
784.70480571
 10
1800.69366824
 20
784.64593328
 10
1800.69366824
 20
784.47604427
 10
1800.69366824
 20
784.20523109
 10
1800.69366824
 20
783.84358617
 10
1800.69366824
 20
783.40120191
 10
1800.69366824
 20
782.88817074
 10
1800.69366824
 20
782.31458507
 10
1800.69366824
 20
781.69053732
 10
1800.69366824
 20
781.0261199
 10
1800.69366824
 20
780.33142524
 10
1800.69366824
 20
779.61654574
 10
1800.69366824
 20
778.89157382
 10
1800.69366824
 20
778.16660191
 10
1800.69366824
 20
777.45172241
 10
1800.69366824
 20
776.75702774
 10
1800.69366824
 20
776.09261032
 10
1800.69366824
 20
775.46856257
 10
1800.69366824
 20
774.8949769
 10
1800.69366824
 20
774.38194573
 10
1800.69366824
 20
773.93956148
 10
1800.69366824
 20
773.57791655
 10
1800.69366824
 20
773.30710338
 10
1800.69366824
 20
773.13721437
 10
1800.69366824
 20
773.07834194
 10
1800.37052916
 20
772.88556043
 10
1800.04637084
 20
772.70044229
 10
1799.72077994
 20
772.52303553
 10
1799.39334311
 20
772.35338817
 10
1799.06364703
 20
772.19154823
 10
1798.73127835
 20
772.03756372
 10
1798.39582373
 20
771.89148265
 10
1798.05686983
 20
771.75335306
 10
1797.71400331
 20
771.62322294
 10
1797.36681084
 20
771.50114033
 10
1797.01487906
 20
771.38715323
 10
1796.65779465
 20
771.28130967
 10
1796.29514427
 20
771.18365765
 10
1795.92651457
 20
771.0942452
 10
1795.55149221
 20
771.01312033
 10
1795.16966385
 20
770.94033106
 10
1794.78061617
 20
770.87592541
 10
1794.3839358
 20
770.81995139
 10
1793.97920942
 20
770.77245702
 10
1793.56602369
 20
770.73349032
 10
1793.14396527
 20
770.7030993
 10
1792.71262081
 20
770.68133197
 10
1792.27157698
 20
770.66823637
 10
1791.82042044
 20
770.6638605
 10
1790.70373863
 20
770.69786036
 10
1789.62853384
 20
770.79894945
 10
1788.59534317
 20
770.96576201
 10
1787.6047037
 20
771.19693229
 10
1786.65715253
 20
771.49109453
 10
1785.75322676
 20
771.84688298
 10
1784.89346348
 20
772.26293189
 10
1784.07839979
 20
772.73787551
 10
1783.30857277
 20
773.27034808
 10
1782.58451952
 20
773.85898385
 10
1781.90677714
 20
774.50241706
 10
1781.27588272
 20
775.19928197
 10
1780.69237336
 20
775.94821281
 10
1780.15678614
 20
776.74784384
 10
1779.66965816
 20
777.59680931
 10
1779.23152652
 20
778.49374345
 10
1778.8429283
 20
779.43728052
 10
1778.50440061
 20
780.42605476
 10
1778.21648054
 20
781.45870042
 10
1777.97970518
 20
782.53385175
 10
1777.79461163
 20
783.65014299
 10
1777.66173697
 20
784.80620839
 10
1777.58161831
 20
786.00068219
 10
1777.55479273
 20
787.23219865
 10
1777.5815858
 20
788.46399521
 10
1777.66147692
 20
789.6592773
  0
HATCH
  5
1B0
100
AcDbEntity
  8
DETAIL_1
 62
    28
  6
CONTINUOUS
100
AcDbHatch
 10
0.0
 20
0.0
 30
0.0
210
0.0
220
0.0
230
1.0
  2
SOLID
 70
     1
 71
     1
 91
        1
 92
        7
 72
     0
 73
     1
 93
      336
 10
1777.79373396
 20
790.81663115
 10
1777.97762479
 20
791.93464298
 10
1778.21241727
 20
793.01189904
 10
1778.49737929
 20
794.04698555
 10
1778.83177869
 20
795.03848874
 10
1779.21488337
 20
795.98499484
 10
1779.64596118
 20
796.88509009
 10
1780.12427999
 20
797.7373607
 10
1780.64910767
 20
798.54039291
 10
1781.2197121
 20
799.29277295
 10
1781.83536114
 20
799.99308706
 10
1782.49532265
 20
800.63992146
 10
1783.19886452
 20
801.23186237
 10
1783.94525461
 20
801.76749604
 10
1784.73376078
 20
802.24540869
 10
1785.56365091
 20
802.66418655
 10
1786.43419286
 20
803.02241586
 10
1787.34465451
 20
803.31868283
 10
1788.29430373
 20
803.55157371
 10
1789.28240837
 20
803.71967471
 10
1790.30823632
 20
803.82157208
 10
1791.37105545
 20
803.85585204
 10
1791.92109982
 20
803.84772435
 10
1792.46185815
 20
803.82358482
 10
1792.99342996
 20
803.78379878
 10
1793.51591472
 20
803.72873155
 10
1794.02941195
 20
803.65874846
 10
1794.53402114
 20
803.57421482
 10
1795.02984179
 20
803.47549595
 10
1795.5169734
 20
803.36295719
 10
1795.99551547
 20
803.23696386
 10
1796.46556749
 20
803.09788127
 10
1796.92722896
 20
802.94607475
 10
1797.38059938
 20
802.78190963
 10
1797.82577826
 20
802.60575122
 10
1798.26286509
 20
802.41796486
 10
1798.69195936
 20
802.21891585
 10
1799.11316058
 20
802.00896953
 10
1799.52656824
 20
801.78849122
 10
1799.93228185
 20
801.55784624
 10
1800.3304009
 20
801.31739991
 10
1800.72102489
 20
801.06751756
 10
1801.10425332
 20
800.80856451
 10
1801.48018568
 20
800.54090608
 10
1801.84892148
 20
800.2649076
 10
1802.21056022
 20
799.98093438
 10
1802.21397336
 20
800.00112738
 10
1802.22382273
 20
800.05939861
 10
1802.2395232
 20
800.15228642
 10
1802.26048966
 20
800.27632913
 10
1802.28613701
 20
800.42806511
 10
1802.31588014
 20
800.60403269
 10
1802.34913393
 20
800.80077021
 10
1802.38531327
 20
801.01481602
 10
1802.42383306
 20
801.24270845
 10
1802.46410817
 20
801.48098586
 10
1802.50555351
 20
801.72618659
 10
1802.54758396
 20
801.97484897
 10
1802.58961441
 20
802.22351135
 10
1802.63105975
 20
802.46871207
 10
1802.67133487
 20
802.70698948
 10
1802.70985465
 20
802.93488191
 10
1802.746034
 20
803.14892772
 10
1802.77928779
 20
803.34566524
 10
1802.80903091
 20
803.52163282
 10
1802.83467826
 20
803.6733688
 10
1802.85564473
 20
803.79741152
 10
1802.8713452
 20
803.89029932
 10
1802.88119456
 20
803.94857055
 10
1802.88460771
 20
803.96876355
 10
1802.50868681
 20
804.2308004
 10
1802.12501592
 20
804.48333489
 10
1801.73344851
 20
804.72622049
 10
1801.33383805
 20
804.9593107
 10
1800.92603803
 20
805.18245897
 10
1800.50990191
 20
805.39551878
 10
1800.08528317
 20
805.59834362
 10
1799.65203529
 20
805.79078695
 10
1799.21001174
 20
805.97270224
 10
1798.75906599
 20
806.14394298
 10
1798.29905152
 20
806.30436264
 10
1797.82982181
 20
806.45381468
 10
1797.35123033
 20
806.5921526
 10
1796.86313055
 20
806.71922986
 10
1796.36537595
 20
806.83489993
 10
1795.85782
 20
806.9390163
 10
1795.34031618
 20
807.03143244
 10
1794.81271797
 20
807.11200181
 10
1794.27487883
 20
807.1805779
 10
1793.72665225
 20
807.23701419
 10
1793.16789169
 20
807.28116414
 10
1792.59845064
 20
807.31288123
 10
1792.01818256
 20
807.33201893
 10
1791.42694094
 20
807.33843073
 10
1790.09212233
 20
807.2957627
 10
1788.79846938
 20
807.16909119
 10
1787.54737209
 20
806.96041508
 10
1786.34022048
 20
806.67173326
 10
1785.17840454
 20
806.3050446
 10
1784.0633143
 20
805.86234799
 10
1782.99633975
 20
805.34564231
 10
1781.97887091
 20
804.75692643
 10
1781.01229779
 20
804.09819924
 10
1780.0980104
 20
803.37145961
 10
1779.23739874
 20
802.57870644
 10
1778.43185283
 20
801.72193859
 10
1777.68276267
 20
800.80315496
 10
1776.99151828
 20
799.82435441
 10
1776.35950966
 20
798.78753583
 10
1775.78812681
 20
797.69469811
 10
1775.27875976
 20
796.54784012
 10
1774.83279851
 20
795.34896074
 10
1774.45163307
 20
794.10005885
 10
1774.13665344
 20
792.80313334
 10
1773.88924965
 20
791.46018308
 10
1773.71081168
 20
790.07320696
 10
1773.60272957
 20
788.64420385
 10
1773.5663933
 20
787.17517264
 10
1773.6013535
 20
785.71326555
 10
1773.70564832
 20
784.29136182
 10
1773.87839911
 20
782.91143557
 10
1774.11872721
 20
781.57546094
 10
1774.42575397
 20
780.28541204
 10
1774.79860072
 20
779.04326302
 10
1775.23638882
 20
777.850988
 10
1775.73823961
 20
776.71056111
 10
1776.30327443
 20
775.62395648
 10
1776.93061463
 20
774.59314824
 10
1777.61938154
 20
773.62011052
 10
1778.36869652
 20
772.70681745
 10
1779.17768091
 20
771.85524317
 10
1780.04545604
 20
771.06736179
 10
1780.97114328
 20
770.34514745
 10
1781.95386395
 20
769.69057428
 10
1782.99273941
 20
769.10561641
 10
1784.08689099
 20
768.59224797
 10
1785.23544004
 20
768.15244308
 10
1786.43750791
 20
767.78817589
 10
1787.69221594
 20
767.50142051
 10
1788.99868547
 20
767.29415108
 10
1790.35603785
 20
767.16834172
 10
1791.76339442
 20
767.12596658
 10
1792.38388754
 20
767.1341012
 10
1792.99572329
 20
767.15827736
 10
1793.59902395
 20
767.19815349
 10
1794.19391179
 20
767.25338804
 10
1794.78050908
 20
767.32363943
 10
1795.35893808
 20
767.40856612
 10
1795.92932107
 20
767.50782653
 10
1796.49178031
 20
767.62107911
 10
1797.04643808
 20
767.74798228
 10
1797.59341664
 20
767.8881945
 10
1798.13283827
 20
768.0413742
 10
1798.66482522
 20
768.20717981
 10
1799.18949978
 20
768.38526977
 10
1799.70698421
 20
768.57530253
 10
1800.21740078
 20
768.77693652
 10
1800.72087176
 20
768.98983017
 10
1801.21751942
 20
769.21364193
 10
1801.70746603
 20
769.44803023
 10
1802.19083386
 20
769.69265352
 10
1802.66774517
 20
769.94717022
 10
1803.13832224
 20
770.21123879
 10
1803.60268733
 20
770.48451764
 10
1804.06096272
 20
770.76666523
 10
1804.51327067
 20
771.05733999
 10
1804.51327067
 20
771.1440749
 10
1804.51327067
 20
771.39436704
 10
1804.51327067
 20
771.79334758
 10
1804.51327067
 20
772.32614769
 10
1804.51327067
 20
772.97789852
 10
1804.51327067
 20
773.73373123
 10
1804.51327067
 20
774.57877697
 10
1804.51327067
 20
775.49816693
 10
1804.51327067
 20
776.47703224
 10
1804.51327067
 20
777.50050407
 10
1804.51327067
 20
778.55371358
 10
1804.51327067
 20
779.62179193
 10
1804.51327067
 20
780.68987028
 10
1804.51327067
 20
781.7430798
 10
1804.51327067
 20
782.76655163
 10
1804.51327067
 20
783.74541694
 10
1804.51327067
 20
784.66480689
 10
1804.51327067
 20
785.50985264
 10
1804.51327067
 20
786.26568535
 10
1804.51327067
 20
786.91743618
 10
1804.51327067
 20
787.45023628
 10
1804.51327067
 20
787.84921683
 10
1804.51327067
 20
788.09950897
 10
1804.51327067
 20
788.18624387
 10
1804.44387582
 20
788.18624387
 10
1804.24362211
 20
788.18624387
 10
1803.92440579
 20
788.18624387
 10
1803.49812314
 20
788.18624387
 10
1802.9766704
 20
788.18624387
 10
1802.37194384
 20
788.18624387
 10
1801.69583972
 20
788.18624387
 10
1800.9602543
 20
788.18624387
 10
1800.17708384
 20
788.18624387
 10
1799.35822459
 20
788.18624387
 10
1798.51557283
 20
788.18624387
 10
1797.66102481
 20
788.18624387
 10
1796.80647679
 20
788.18624387
 10
1795.96382502
 20
788.18624387
 10
1795.14496578
 20
788.18624387
 10
1794.36179532
 20
788.18624387
 10
1793.6262099
 20
788.18624387
 10
1792.95010578
 20
788.18624387
 10
1792.34537922
 20
788.18624387
 10
1791.82392648
 20
788.18624387
 10
1791.39764383
 20
788.18624387
 10
1791.07842751
 20
788.18624387
 10
1790.8781738
 20
788.18624387
 10
1790.80877895
 20
788.18624387
 10
1790.81162612
 20
788.16861506
 10
1790.81984226
 20
788.11774335
 10
1790.83293926
 20
788.03665082
 10
1790.85042906
 20
787.92835956
 10
1790.87182355
 20
787.79589165
 10
1790.89663465
 20
787.64226916
 10
1790.92437427
 20
787.47051418
 10
1790.95455434
 20
787.28364879
 10
1790.98668675
 20
787.08469508
 10
1791.02028342
 20
786.87667512
 10
1791.05485626
 20
786.66261099
 10
1791.0899172
 20
786.44552479
 10
1791.12497813
 20
786.22843858
 10
1791.15955098
 20
786.01437446
 10
1791.19314765
 20
785.8063545
 10
1791.22528006
 20
785.60740079
 10
1791.25546012
 20
785.4205354
 10
1791.28319974
 20
785.24878042
 10
1791.30801084
 20
785.09515793
 10
1791.32940534
 20
784.96269001
 10
1791.34689513
 20
784.85439875
 10
1791.35999214
 20
784.77330622
 10
1791.36820827
 20
784.72243452
 10
1791.37105545
 20
784.70480571
 10
1791.41826196
 20
784.70480571
 10
1791.55448649
 20
784.70480571
 10
1791.77163646
 20
784.70480571
 10
1792.06161936
 20
784.70480571
 10
1792.41634262
 20
784.70480571
 10
1792.8277137
 20
784.70480571
 10
1793.28764005
 20
784.70480571
 10
1793.78802913
 20
784.70480571
 10
1794.3207884
 20
784.70480571
 10
1794.87782531
 20
784.70480571
 10
1795.4510473
 20
784.70480571
 10
1796.03236184
 20
784.70480571
 10
1796.61367639
 20
784.70480571
 10
1797.18689838
 20
784.70480571
 10
1797.74393529
 20
784.70480571
 10
1798.27669455
 20
784.70480571
 10
1798.77708364
 20
784.70480571
 10
1799.23700999
 20
784.70480571
 10
1799.64838107
 20
784.70480571
 10
1800.00310433
 20
784.70480571
 10
1800.29308722
 20
784.70480571
 10
1800.5102372
 20
784.70480571
 10
1800.64646173
 20
784.70480571
 10
1800.69366824
 20
784.70480571
 10
1800.69366824
 20
784.64593328
 10
1800.69366824
 20
784.47604427
 10
1800.69366824
 20
784.20523109
 10
1800.69366824
 20
783.84358617
 10
1800.69366824
 20
783.40120191
 10
1800.69366824
 20
782.88817074
 10
1800.69366824
 20
782.31458507
 10
1800.69366824
 20
781.69053732
 10
1800.69366824
 20
781.0261199
 10
1800.69366824
 20
780.33142524
 10
1800.69366824
 20
779.61654574
 10
1800.69366824
 20
778.89157382
 10
1800.69366824
 20
778.16660191
 10
1800.69366824
 20
777.45172241
 10
1800.69366824
 20
776.75702774
 10
1800.69366824
 20
776.09261032
 10
1800.69366824
 20
775.46856257
 10
1800.69366824
 20
774.8949769
 10
1800.69366824
 20
774.38194573
 10
1800.69366824
 20
773.93956148
 10
1800.69366824
 20
773.57791655
 10
1800.69366824
 20
773.30710338
 10
1800.69366824
 20
773.13721437
 10
1800.69366824
 20
773.07834194
 10
1800.37052916
 20
772.88556043
 10
1800.04637084
 20
772.70044229
 10
1799.72077994
 20
772.52303553
 10
1799.39334311
 20
772.35338817
 10
1799.06364703
 20
772.19154823
 10
1798.73127835
 20
772.03756372
 10
1798.39582373
 20
771.89148265
 10
1798.05686983
 20
771.75335306
 10
1797.71400331
 20
771.62322294
 10
1797.36681084
 20
771.50114033
 10
1797.01487906
 20
771.38715323
 10
1796.65779465
 20
771.28130967
 10
1796.29514427
 20
771.18365765
 10
1795.92651457
 20
771.0942452
 10
1795.55149221
 20
771.01312033
 10
1795.16966385
 20
770.94033106
 10
1794.78061617
 20
770.87592541
 10
1794.3839358
 20
770.81995139
 10
1793.97920942
 20
770.77245702
 10
1793.56602369
 20
770.73349032
 10
1793.14396527
 20
770.7030993
 10
1792.71262081
 20
770.68133197
 10
1792.27157698
 20
770.66823637
 10
1791.82042044
 20
770.6638605
 10
1790.70373863
 20
770.69786036
 10
1789.62853384
 20
770.79894945
 10
1788.59534317
 20
770.96576201
 10
1787.6047037
 20
771.19693229
 10
1786.65715253
 20
771.49109453
 10
1785.75322676
 20
771.84688298
 10
1784.89346348
 20
772.26293189
 10
1784.07839979
 20
772.73787551
 10
1783.30857277
 20
773.27034808
 10
1782.58451952
 20
773.85898385
 10
1781.90677714
 20
774.50241706
 10
1781.27588272
 20
775.19928197
 10
1780.69237336
 20
775.94821281
 10
1780.15678614
 20
776.74784384
 10
1779.66965816
 20
777.59680931
 10
1779.23152652
 20
778.49374345
 10
1778.8429283
 20
779.43728052
 10
1778.50440061
 20
780.42605476
 10
1778.21648054
 20
781.45870042
 10
1777.97970518
 20
782.53385175
 10
1777.79461163
 20
783.65014299
 10
1777.66173697
 20
784.80620839
 10
1777.58161831
 20
786.00068219
 10
1777.55479273
 20
787.23219865
 10
1777.5815858
 20
788.46399521
 10
1777.66147692
 20
789.6592773
 97
        1
330
1AF
 75
     0
 76
     2
 47
0.775229
 98
        1
 10
0.0
 20
0.0
  0
LWPOLYLINE
  5
1B1
102
{ACAD_REACTORS
330
1B2
102
}
100
AcDbEntity
  8
DETAIL_1
 62
    28
  6
CONTINUOUS
370
    -3
100
AcDbPolyline
 90
       10
 70
     1
 43
0.0
 10
1507.81832416
 20
801.16080261
 10
1507.81832416
 20
806.60849775
 10
1479.568207
 20
806.60849775
 10
1480.52282248
 20
800.48675513
 10
1498.77627935
 20
800.48675513
 10
1478.72593277
 20
773.30416495
 10
1478.72593277
 20
767.85475904
 10
1508.3241449
 20
767.85475904
 10
1507.36895917
 20
773.97707192
 10
1487.76797758
 20
773.97707192
  0
HATCH
  5
1B2
100
AcDbEntity
  8
DETAIL_1
 62
    28
  6
CONTINUOUS
100
AcDbHatch
 10
0.0
 20
0.0
 30
0.0
210
0.0
220
0.0
230
1.0
  2
SOLID
 70
     1
 71
     1
 91
        1
 92
        7
 72
     0
 73
     1
 93
       10
 10
1507.81832416
 20
801.16080261
 10
1507.81832416
 20
806.60849775
 10
1479.568207
 20
806.60849775
 10
1480.52282248
 20
800.48675513
 10
1498.77627935
 20
800.48675513
 10
1478.72593277
 20
773.30416495
 10
1478.72593277
 20
767.85475904
 10
1508.3241449
 20
767.85475904
 10
1507.36895917
 20
773.97707192
 10
1487.76797758
 20
773.97707192
 97
        1
330
1B1
 75
     0
 76
     2
 47
0.775229
 98
        1
 10
0.0
 20
0.0
  0
LWPOLYLINE
  5
1B3
102
{ACAD_REACTORS
330
1B4
102
}
100
AcDbEntity
  8
DETAIL_1
 62
    28
  6
CONTINUOUS
370
    -3
100
AcDbPolyline
 90
        6
 70
     1
 43
0.0
 10
1459.2806322
 20
806.60849775
 10
1451.8107946
 20
806.60849775
 10
1451.8107946
 20
767.85475904
 10
1473.20923616
 20
767.85475904
 10
1472.19816493
 20
774.42643691
 10
1459.2806322
 20
774.42643691
  0
HATCH
  5
1B4
100
AcDbEntity
  8
DETAIL_1
 62
    28
  6
CONTINUOUS
100
AcDbHatch
 10
0.0
 20
0.0
 30
0.0
210
0.0
220
0.0
230
1.0
  2
SOLID
 70
     1
 71
     1
 91
        1
 92
        7
 72
     0
 73
     1
 93
        6
 10
1459.2806322
 20
806.60849775
 10
1451.8107946
 20
806.60849775
 10
1451.8107946
 20
767.85475904
 10
1473.20923616
 20
767.85475904
 10
1472.19816493
 20
774.42643691
 10
1459.2806322
 20
774.42643691
 97
        1
330
1B3
 75
     0
 76
     2
 47
0.775229
 98
        1
 10
0.0
 20
0.0
  0
LINE
  5
1B5
100
AcDbEntity
  8
DETAIL_1
 62
    28
  6
CONTINUOUS
370
    -2
100
AcDbLine
 10
1443.80220551
 20
785.81264304
 30
0.0
 11
1443.83912808
 21
787.28808415
 31
0.0
  0
LWPOLYLINE
  5
1B6
100
AcDbEntity
  8
DETAIL_1
 62
    28
  6
CONTINUOUS
370
    -3
100
AcDbPolyline
 90
       97
 70
     0
 43
0.0
 10
1436.12899823
 20
784.19845257
 10
1435.98706571
 20
783.25533643
 10
1435.80583572
 20
782.34802986
 10
1435.58586889
 20
781.47757882
 10
1435.32772581
 20
780.64502929
 10
1435.03196709
 20
779.85142724
 10
1434.69915335
 20
779.09781865
 10
1434.32984518
 20
778.38524948
 10
1433.9246032
 20
777.7147657
 10
1433.48398802
 20
777.0874133
 10
1433.00856023
 20
776.50423823
 10
1432.49888045
 20
775.96628648
 10
1431.95550929
 20
775.47460401
 10
1431.37900735
 20
775.0302368
 10
1430.76993524
 20
774.63423081
 10
1430.12885356
 20
774.28763203
 10
1429.45632293
 20
773.99148642
 10
1428.75290395
 20
773.74683995
 10
1428.01915724
 20
773.5547386
 10
1427.25564338
 20
773.41622833
 10
1426.462923
 20
773.33235513
 10
1425.6415567
 20
773.30416495
 10
1424.82702577
 20
773.33235513
 10
1424.04057148
 20
773.41622833
 10
1423.28277921
 20
773.5547386
 10
1422.5542343
 20
773.74683995
 10
1421.85552211
 20
773.99148642
 10
1421.187228
 20
774.28763203
 10
1420.54993734
 20
774.63423081
 10
1419.94423547
 20
775.0302368
 10
1419.37070776
 20
775.47460401
 10
1418.82993956
 20
775.96628648
 10
1418.32251624
 20
776.50423823
 10
1417.84902315
 20
777.0874133
 10
1417.41004564
 20
777.7147657
 10
1417.00616909
 20
778.38524948
 10
1416.63797884
 20
779.09781865
 10
1416.30606025
 20
779.85142724
 10
1416.01099868
 20
780.64502929
 10
1415.7533795
 20
781.47757882
 10
1415.53378805
 20
782.34802986
 10
1415.3528097
 20
783.25533643
 10
1415.2110298
 20
784.19845257
 10
1415.10903372
 20
785.1763323
 10
1415.04740681
 20
786.18792965
 10
1415.02673442
 20
787.23219865
 10
1415.04740681
 20
788.27627414
 10
1415.10903372
 20
789.28771684
 10
1415.2110298
 20
790.26547806
 10
1415.3528097
 20
791.2085091
 10
1415.53378805
 20
792.11576126
 10
1415.7533795
 20
792.98618586
 10
1416.01099868
 20
793.81873419
 10
1416.30606025
 20
794.61235756
 10
1416.63797884
 20
795.36600728
 10
1417.00616909
 20
796.07863466
 10
1417.41004564
 20
796.749191
 10
1417.84902315
 20
797.3766276
 10
1418.32251624
 20
797.95989577
 10
1418.82993956
 20
798.49794681
 10
1419.37070776
 20
798.98973204
 10
1419.94423547
 20
799.43420275
 10
1420.54993734
 20
799.83031025
 10
1421.187228
 20
800.17700586
 10
1421.85552211
 20
800.47324086
 10
1422.5542343
 20
800.71796657
 10
1423.28277921
 20
800.9101343
 10
1424.04057148
 20
801.04869534
 10
1424.82702577
 20
801.13260101
 10
1425.6415567
 20
801.16080261
 10
1426.45644186
 20
801.13260101
 10
1427.24378375
 20
801.04869534
 10
1428.00294826
 20
800.9101343
 10
1428.73330126
 20
800.71796657
 10
1429.43420865
 20
800.47324086
 10
1430.10503629
 20
800.17700586
 10
1430.74515008
 20
799.83031025
 10
1431.3539159
 20
799.43420275
 10
1431.93069963
 20
798.98973204
 10
1432.47486716
 20
798.49794681
 10
1432.98578435
 20
797.95989577
 10
1433.46281711
 20
797.3766276
 10
1433.90533131
 20
796.749191
 10
1434.31269283
 20
796.07863466
 10
1434.68426755
 20
795.36600728
 10
1435.01942137
 20
794.61235756
 10
1435.31752016
 20
793.81873419
 10
1435.5779298
 20
792.98618586
 10
1435.80001617
 20
792.11576126
 10
1435.98314517
 20
791.2085091
 10
1436.12668267
 20
790.26547806
 10
1436.22999455
 20
789.28771684
 10
1436.2924467
 20
788.27627414
 10
1436.31340499
 20
787.23219865
 10
1436.29272848
 20
786.18792965
 10
1436.23107269
 20
785.1763323
 10
1436.12899823
 20
784.19845257
  0
LWPOLYLINE
  5
1B7
100
AcDbEntity
  8
DETAIL_1
 62
    28
  6
CONTINUOUS
370
    -3
100
AcDbPolyline
 90
       96
 70
     0
 43
0.0
 10
1443.83912808
 20
787.28808415
 10
1443.80277441
 20
788.76295929
 10
1443.69455856
 20
790.19563666
 10
1443.51574826
 20
791.58428817
 10
1443.26761126
 20
792.92708572
 10
1442.95141529
 20
794.2222012
 10
1442.5684281
 20
795.46780652
 10
1442.11991743
 20
796.66207357
 10
1441.60715101
 20
797.80317426
 10
1441.03139659
 20
798.88928049
 10
1440.3939219
 20
799.91856416
 10
1439.69599468
 20
800.88919716
 10
1438.93888269
 20
801.79935141
 10
1438.12385364
 20
802.64719879
 10
1437.25217529
 20
803.43091121
 10
1436.32511537
 20
804.14866058
 10
1435.34394163
 20
804.79861878
 10
1434.3099218
 20
805.37895773
 10
1433.22432363
 20
805.88784931
 10
1432.08841484
 20
806.32346544
 10
1430.90346319
 20
806.68397801
 10
1429.67073642
 20
806.96755893
 10
1428.39150225
 20
807.17238008
 10
1427.06702844
 20
807.29661338
 10
1425.69858272
 20
807.33843073
 10
1424.33591546
 20
807.29632627
 10
1423.01506158
 20
807.17124748
 10
1421.73745887
 20
806.96504622
 10
1420.5045451
 20
806.67957434
 10
1419.31775805
 20
806.3166837
 10
1418.1785355
 20
805.87822617
 10
1417.08831522
 20
805.36605361
 10
1416.04853499
 20
804.78201788
 10
1415.0606326
 20
804.12797083
 10
1414.12604582
 20
803.40576433
 10
1413.24621243
 20
802.61725023
 10
1412.4225702
 20
801.76428041
 10
1411.65655693
 20
800.84870671
 10
1410.94961037
 20
799.87238101
 10
1410.30316832
 20
798.83715515
 10
1409.71866854
 20
797.744881
 10
1409.19754883
 20
796.59741043
 10
1408.74124695
 20
795.39659528
 10
1408.35120069
 20
794.14428743
 10
1408.02884782
 20
792.84233872
 10
1407.77562612
 20
791.49260103
 10
1407.59297337
 20
790.09692622
 10
1407.48232735
 20
788.65716613
 10
1407.44512584
 20
787.17517264
 10
1407.4820374
 20
785.70043421
 10
1407.59182988
 20
784.26788215
 10
1407.77309002
 20
782.87934507
 10
1408.02440454
 20
781.53665157
 10
1408.34436016
 20
780.24163022
 10
1408.73154362
 20
778.99610963
 10
1409.18454162
 20
777.8019184
 10
1409.70194091
 20
776.66088511
 10
1410.2823282
 20
775.57483837
 10
1410.92429023
 20
774.54560676
 10
1411.6264137
 20
773.57501888
 10
1412.38728536
 20
772.66490333
 10
1413.20549192
 20
771.8170887
 10
1414.07962011
 20
771.03340359
 10
1415.00825666
 20
770.31567658
 10
1415.98998829
 20
769.66573628
 10
1417.02340172
 20
769.08541128
 10
1418.10708368
 20
768.57653017
 10
1419.2396209
 20
768.14092155
 10
1420.4196001
 20
767.78041401
 10
1421.64560801
 20
767.49683615
 10
1422.91623134
 20
767.29201656
 10
1424.23005683
 20
767.16778384
 10
1425.58567121
 20
767.12596658
 10
1426.95475414
 20
767.16834989
 10
1428.28093217
 20
767.29421642
 10
1429.5628403
 20
767.50164104
 10
1430.79911351
 20
767.78869863
 10
1431.98838678
 20
768.15346406
 10
1433.12929512
 20
768.59401221
 10
1434.2204735
 20
769.10841796
 10
1435.26055693
 20
769.69475619
 10
1436.24818038
 20
770.35110177
 10
1437.18197884
 20
771.07552958
 10
1438.06058731
 20
771.86611449
 10
1438.88264078
 20
772.72093139
 10
1439.64677423
 20
773.63805515
 10
1440.35162265
 20
774.61556065
 10
1440.99582104
 20
775.65152276
 10
1441.57800438
 20
776.74401637
 10
1442.09680766
 20
777.89111634
 10
1442.55086587
 20
779.09089756
 10
1442.938814
 20
780.3414349
 10
1443.25928704
 20
781.64080324
 10
1443.51091998
 20
782.98707746
 10
1443.69234781
 20
784.37833243
 10
1443.80220551
 20
785.81264304
  0
LINE
  5
1B8
100
AcDbEntity
  8
DETAIL_1
 62
    28
  6
CONTINUOUS
370
    -2
100
AcDbLine
 10
1615.98640835
 20
806.83318024
 30
0.0
 11
1611.99800892
 21
806.83318024
 31
0.0
  0
LWPOLYLINE
  5
1B9
100
AcDbEntity
  8
DETAIL_1
 62
    28
  6
CONTINUOUS
370
    -3
100
AcDbPolyline
 90
        4
 70
     0
 43
0.0
 10
1613.90723988
 20
802.34010059
 10
1621.04005373
 20
783.80607572
 10
1606.77442602
 20
783.80607572
 10
1613.90723988
 20
802.34010059
  0
LWPOLYLINE
  5
1BA
100
AcDbEntity
  8
DETAIL_1
 62
    28
  6
CONTINUOUS
370
    -3
100
AcDbPolyline
 90
        8
 70
     0
 43
0.0
 10
1611.99800892
 20
806.83318024
 10
1596.72188025
 20
767.85475904
 10
1600.65325366
 20
767.85475904
 10
1605.42633105
 20
780.37995279
 10
1622.3881487
 20
780.37995279
 10
1627.3870491
 20
767.46242006
 10
1631.14962552
 20
768.30412403
 10
1615.98640835
 20
806.83318024
  0
LINE
  5
1BB
100
AcDbEntity
  8
DETAIL_1
 62
    28
  6
CONTINUOUS
370
    -2
100
AcDbLine
 10
1749.88120858
 20
806.83318024
 30
0.0
 11
1734.6050799
 21
767.85475904
 31
0.0
  0
LWPOLYLINE
  5
1BC
100
AcDbEntity
  8
DETAIL_1
 62
    28
  6
CONTINUOUS
370
    -3
100
AcDbPolyline
 90
        4
 70
     0
 43
0.0
 10
1751.79043953
 20
802.34010059
 10
1758.92325338
 20
783.80607572
 10
1744.65762568
 20
783.80607572
 10
1751.79043953
 20
802.34010059
  0
LWPOLYLINE
  5
1BD
100
AcDbEntity
  8
DETAIL_1
 62
    28
  6
CONTINUOUS
370
    -3
100
AcDbPolyline
 90
        8
 70
     0
 43
0.0
 10
1734.6050799
 20
767.85475904
 10
1738.53645332
 20
767.85475904
 10
1743.30953071
 20
780.37995279
 10
1760.27134836
 20
780.37995279
 10
1765.27024876
 20
767.46242006
 10
1769.03282518
 20
768.30412403
 10
1753.86960801
 20
806.83318024
 10
1749.88120858
 20
806.83318024
  0
LINE
  5
1BE
100
AcDbEntity
  8
DETAIL_1
 62
   106
  6
CONTINUOUS
370
    -2
100
AcDbLine
 10
-4.35244453
 20
-375.74967222
 30
0.0
 11
-73.04189683
 21
-327.2649019
 31
0.0
  0
INSERT
  5
1BF
100
AcDbEntity
  8
DETAIL_1
 62
   106
  6
CONTINUOUS
370
     0
100
AcDbBlockReference
  2
CDWK_EXTR_2
 10
-4.35244453
 20
-375.74967222
 30
0.0
 41
20.0
 42
20.0
 43
20.0
 50
144.78346589
  0
LINE
  5
1C0
100
AcDbEntity
  8
DETAIL_1
 62
     7
  6
CONTINUOUS
370
    -2
100
AcDbLine
 10
-703.8204329
 20
-402.29058907
 30
0.0
 11
-703.8204329
 21
-647.12460058
 31
0.0
  0
TEXT
  5
1C1
100
AcDbEntity
  8
DETAIL_1
 62
   106
370
    25
100
AcDbText
 10
-152.2226627
 20
305.7601774
 30
0.0
 40
30.0
  1
Vorbohrung d=6mm, Elemente b=1000mm
  7
WHITNEY_BOOK
 50
0.0
 41
0.8
 51
0.0
100
AcDbText
  0
TEXT
  5
1C2
100
AcDbEntity
  8
DETAIL_1
 62
   106
370
    25
100
AcDbText
 10
774.56173307
 20
305.7601774
 30
0.0
 40
30.0
  1
Vorbohrung d=6mm, Elemente b=514mm
  7
WHITNEY_BOOK
 50
0.0
 41
0.8
 51
0.0
100
AcDbText
  0
TEXT
  5
1C3
100
AcDbEntity
  8
DETAIL_1
 62
     7
370
    25
100
AcDbText
 10
1376.85028419
 20
-799.8195179
 30
0.0
 40
30.0
  1
Tel. ++41 (0)55 418 90 82
  7
WHITNEY_BOOK
 50
0.0083474
 41
1.0
 51
0.0
100
AcDbText
  0
TEXT
  5
1C4
100
AcDbEntity
  8
DETAIL_1
 62
     7
370
    25
100
AcDbText
 10
1453.16278338
 20
-684.60839661
 30
0.0
 40
30.0
  1
EGG HOLZ KÄLIN AG
  7
WHITNEY_BOOK
 50
0.0083474
 41
1.0
 51
0.0
100
AcDbText
  0
TEXT
  5
1C5
100
AcDbEntity
  8
DETAIL_1
 62
     7
370
    25
100
AcDbText
 10
1581.03778202
 20
-742.18976822
 30
0.0
 40
30.0
  1
Eggerstrasse 1
  7
WHITNEY_BOOK
 50
0.0083474
 41
1.0
 51
0.0
100
AcDbText
  0
TEXT
  5
1C6
100
AcDbEntity
  8
DETAIL_1
 62
     7
370
    25
100
AcDbText
 10
1379.10815141
 20
-853.81918953
 30
0.0
 40
30.0
  1
Fax ++41 (0)55 418 90 84
  7
WHITNEY_BOOK
 50
0.0083474
 41
1.0
 51
0.0
100
AcDbText
  0
TEXT
  5
1C7
100
AcDbEntity
  8
DETAIL_1
 62
     7
370
    25
100
AcDbText
 10
1536.80351697
 20
-907.79621552
 30
0.0
 40
30.0
  1
CH-8847 Egg SZ
  7
WHITNEY_BOOK
 50
0.0083474
 41
1.0
 51
0.0
100
AcDbText
  0
TEXT
  5
1C8
100
AcDbEntity
  8
DETAIL_1
 62
     7
370
    25
100
AcDbText
 10
1545.62388412
 20
-961.79493106
 30
0.0
 40
30.0
  1
www.eggholz.ch
  7
WHITNEY_BOOK
 50
0.0083474
 41
1.0
 51
0.0
100
AcDbText
  0
TEXT
  5
1C9
100
AcDbEntity
  8
DETAIL_1
 62
     5
370
    18
100
AcDbText
 10
-785.3500401
 20
575.17961413
 30
0.0
 40
50.0
  1
Detail Vorbohrung beim Bodenelement EB   Mst. 1:10
  7
WHITNEY_BOOK
 50
0.0
 41
1.0
 51
0.0
100
AcDbText
  0
TEXT
  5
1CA
100
AcDbEntity
  8
DETAIL_1
 62
     5
370
    -3
100
AcDbText
 10
1410.79018733
 20
575.17961413
 30
0.0
 40
50.0
  1
01.01.2011/FH
  7
WHITNEY_BOOK
 50
0.0
 41
1.0
 51
0.0
100
AcDbText
  0
TEXT
  5
1CB
100
AcDbEntity
  8
DETAIL_1
 62
   106
370
    25
100
AcDbText
 10
-349.89228972
 20
-327.2649019
 30
0.0
 40
30.0
  1
Vorbohrung d=6mm
  7
WHITNEY_BOOK
 50
0.0
 41
0.8
 51
0.0
100
AcDbText
  0
ENDSEC
  0
SECTION
  2
OBJECTS
  0
DICTIONARY
  5
1
100
AcDbDictionary
  3
ACAD_GROUP
350
2
  3
ACAD_MLINESTYLE
350
3
  0
DICTIONARY
  5
2
102
{CDWK_REACTORS
330
1
102
}
100
AcDbDictionary
  0
DICTIONARY
  5
3
102
{CDWK_REACTORS
330
1
102
}
100
AcDbDictionary
  3
STANDARD
350
4
  0
MLINESTYLE
  5
4
102
{CDWK_REACTORS
330
3
102
}
100
AcDbMlineStyle
  2
STANDARD
 70
     0
  3

 62
     0
 51
90.0
 52
90.0
 71
     2
 49
0.5
 62
   256
  6
BYLAYER
 49
-0.5
 62
   256
  6
BYLAYER
  0
ENDSEC
  0
EOF
