  0
SECTION
  2
HEADER
  9
$ACADVER
  1
AC1014
  9
$DWGCODEPAGE
  3
ANSI_1252
  9
$INSBASE
 10
0.0
 20
0.0
 30
0.0
  9
$EXTMIN
 10
-1970.0
 20
0.0
  9
$EXTMAX
 10
-1.4551915228367E-11
 20
2710.0
  9
$LIMMIN
 10
-1970.0
 20
0.0
  9
$LIMMAX
 10
-1.4551915228367E-11
 20
2710.0
  9
$ORTHOMODE
 70
     0
  9
$REGENMODE
 70
     1
  9
$FILLMODE
 70
     1
  9
$QTEXTMODE
 70
     0
  9
$MIRRTEXT
 70
     1
  9
$DRAGMODE
 70
     2
  9
$LTSCALE
 40
10.0
  9
$OSMODE
 70
     0
  9
$ATTMODE
 70
     1
  9
$TEXTSIZE
 40
3.5
  9
$TRACEWID
 40
1.0
  9
$TEXTSTYLE
  7
STANDARD
  9
$CLAYER
  8
0
  9
$CELTYPE
  6
BYLAYER
  9
$CECOLOR
 62
   256
  9
$DIMSCALE
 40
1.0
  9
$DIMASZ
 40
2.0
  9
$DIMEXO
 40
5.0
  9
$DIMDLI
 40
10.0
  9
$DIMRND
 40
0.0
  9
$DIMDLE
 40
2.0
  9
$DIMEXE
 40
2.0
  9
$DIMTP
 40
0.0
  9
$DIMTM
 40
0.0
  9
$DIMTXT
 40
2.1
  9
$DIMCEN
 40
1.5
  9
$DIMTSZ
 40
0.0
  9
$DIMTOL
 70
     0
  9
$DIMLIM
 70
     0
  9
$DIMTIH
 70
     1
  9
$DIMTOH
 70
     0
  9
$DIMSE1
 70
     0
  9
$DIMSE2
 70
     0
  9
$DIMTAD
 70
     1
  9
$DIMZIN
 70
     8
  9
$DIMBLK
  1

  9
$DIMASO
 70
     1
  9
$DIMSHO
 70
     1
  9
$DIMPOST
  1

  9
$DIMAPOST
  1

  9
$DIMALT
 70
     0
  9
$DIMALTD
 70
     2
  9
$DIMALTF
 40
25.4
  9
$DIMLFAC
 40
1.0
  9
$DIMTOFL
 70
     0
  9
$DIMTVP
 40
0.0
  9
$DIMTIX
 70
     0
  9
$DIMSOXD
 70
     0
  9
$DIMSAH
 70
     0
  9
$DIMBLK1
  1

  9
$DIMBLK2
  1

  9
$DIMSTYLE
  2
*UNNAMED
  9
$DIMCLRD
 70
     9
  9
$DIMCLRE
 70
     9
  9
$DIMCLRT
 70
     7
  9
$DIMTFAC
 40
1.0
  9
$DIMGAP
 40
0.09
  9
$DIMUNIT
 70
     2
  9
$LUNITS
 70
     2
  9
$LUPREC
 70
     6
  9
$AXISMODE
 70
     0
  9
$AXISUNIT
 10
0.0
 20
0.0
  9
$SKETCHINC
 40
0.1
  9
$FILLETRAD
 40
0.0
  9
$AUNITS
 70
     0
  9
$AUPREC
 70
     0
  9
$MENU
  1
ACAD
  9
$ELEVATION
 40
0.0
  9
$PELEVATION
 40
0.0
  9
$THICKNESS
 40
0.0
  9
$LIMCHECK
 70
     0
  9
$BLIPMODE
 70
     1
  9
$CHAMFERA
 40
0.0
  9
$CHAMFERB
 40
0.0
  9
$SKPOLY
 70
     1
  9
$TDCREATE
 40
2455594.0000000000
  9
$TDUPDATE
 40
2455594.0000000000
  9
$TDINDWG
 40
0.0
  9
$TDUSRTIMER
 40
0.0
  9
$USRTIMER
 70
     1
  9
$ANGBASE
 50
0.0
  9
$ANGDIR
 70
     0
  9
$PDMODE
 70
     0
  9
$PDSIZE
 40
0.0
  9
$PLINEWID
 40
0.0
  9
$COORDS
 70
     2
  9
$SPLFRAME
 70
     0
  9
$SPLINETYPE
 70
     6
  9
$SPLINESEGS
 70
     8
  9
$ATTDIA
 70
     1
  9
$ATTREQ
 70
     1
  9
$HANDLING
 70
     1
  9
$HANDSEED
  5
     196
  9
$SURFTAB1
 70
     6
  9
$SURFTAB2
 70
     6
  9
$SURFTYPE
 70
     6
  9
$SURFU
 70
     6
  9
$SURFV
 70
     6
  9
$UCSNAME
  2

  9
$UCSORG
 10
0.0
 20
0.0
 30
0.0
  9
$UCSXDIR
 10
1.0
 20
0.0
 30
0.0
  9
$UCSYDIR
 10
0.0
 20
1.0
 30
0.0
  9
$PUCSNAME
  2

  9
$PUCSORG
 10
0.0
 20
0.0
 30
0.0
  9
$PUCSXDIR
 10
1.0
 20
0.0
 30
0.0
  9
$PUCSYDIR
 10
0.0
 20
1.0
 30
0.0
  9
$USERI1
 70
     0
  9
$USERI2
 70
     0
  9
$USERI3
 70
     0
  9
$USERI4
 70
     0
  9
$USERI5
 70
     0
  9
$USERR1
 40
0.0
  9
$USERR2
 40
0.0
  9
$USERR3
 40
0.0
  9
$USERR4
 40
0.0
  9
$USERR5
 40
0.0
  9
$WORLDVIEW
 70
     1
  9
$SHADEDGE
 70
     3
  9
$SHADEDIF
 70
    70
  9
$TILEMODE
 70
     1
  9
$MAXACTVP
 70
    16
  9
$PINSBASE
 10
0.0
 20
0.0
 30
0.0
  9
$PLIMCHECK
 70
     0
  9
$PEXTMIN
 10
1.0000000000000E+20
 20
1.0000000000000E+20
 30
1.0000000000000E+20
  9
$PEXTMAX
 10
-1.0000000000000E+20
 20
-1.0000000000000E+20
 30
-1.0000000000000E+20
  9
$PLIMMIN
 10
0.0
 20
0.0
  9
$UNITMODE
 70
     0
  9
$VISRETAIN
 70
     0
  9
$MEASUREMENT
 70
     1
  0
ENDSEC
  0
SECTION
  2
TABLES
  0
TABLE
  2
VPORT
  5
2D
100
AcDbSymbolTable
 70
     1
  0
ENDTAB
  0
TABLE
  2
STYLE
  5
2E
100
AcDbSymbolTable
 70
     3
  0
STYLE
  5
2F
100
AcDbSymbolTableRecord
100
AcDbTextStyleTableRecord
  2
STANDARD
 70
     0
 40
0.0
 41
1.0
 50
0.0
 71
     0
 42
3.5
  3
MONOTXT
  4

  0
STYLE
  5
30
100
AcDbSymbolTableRecord
100
AcDbTextStyleTableRecord
  2
CADWORK1
 70
     0
 40
0.0
 41
1.0
 50
0.0
 71
     0
 42
3.5
  3
MONOTXT
  4

  0
STYLE
  5
31
100
AcDbSymbolTableRecord
100
AcDbTextStyleTableRecord
  2
MONOTXT
 70
     0
 40
0.0
 41
1.0
 50
0.0
 71
     0
 42
3.5
  3
MONOTXT
  4

  0
STYLE
  5
32
100
AcDbSymbolTableRecord
100
AcDbTextStyleTableRecord
  2
WHITNEY_BOOK
 70
     0
 40
0.0
 41
1.0
 50
0.0
 71
     0
 42
3.5
  3

  4

1001
ACAD
1000
Whitney Book
1071
        0
  0
ENDTAB
  0
TABLE
  2
LTYPE
  5
33
100
AcDbSymbolTable
 70
    11
  0
LTYPE
  5
34
100
AcDbSymbolTableRecord
100
AcDbLinetypeTableRecord
  2
BYBLOCK
 70
    64
  3

 72
    65
 73
     0
 40
0.0
  0
LTYPE
  5
35
100
AcDbSymbolTableRecord
100
AcDbLinetypeTableRecord
  2
BYLAYER
 70
    64
  3

 72
    65
 73
     0
 40
0.0
  0
LTYPE
  5
36
100
AcDbSymbolTableRecord
100
AcDbLinetypeTableRecord
  2
CONTINUOUS
 70
    64
  3
Solid line
 72
    65
 73
     0
 40
0.0
  0
LTYPE
  5
37
100
AcDbSymbolTableRecord
100
AcDbLinetypeTableRecord
  2
DOT
 70
    64
  3
. . . . . . . . . . . . . . . . . . . . . . . .
 72
    65
 73
     2
 40
2.5
 49
0.0
 74
     0
 49
-2.5
 74
     0
  0
LTYPE
  5
38
100
AcDbSymbolTableRecord
100
AcDbLinetypeTableRecord
  2
HIDDEN
 70
    64
  3
__ __ __ __ __ __ __ __ __ __ __ __ __ __ __ __
 72
    65
 73
     2
 40
1.875
 49
1.25
 74
     0
 49
-0.625
 74
     0
  0
LTYPE
  5
39
100
AcDbSymbolTableRecord
100
AcDbLinetypeTableRecord
  2
DAL
 70
    64
  3
Solid line (for MAPS)
 72
    65
 73
     0
 40
0.0
  0
LTYPE
  5
3A
100
AcDbSymbolTableRecord
100
AcDbLinetypeTableRecord
  2
MUR
 70
    64
  3
Solid line (for MAPS)
 72
    65
 73
     0
 40
0.0
  0
LTYPE
  5
3B
100
AcDbSymbolTableRecord
100
AcDbLinetypeTableRecord
  2
SOM
 70
    64
  3
Solid line (for MAPS)
 72
    65
 73
     0
 40
0.0
  0
LTYPE
  5
3C
100
AcDbSymbolTableRecord
100
AcDbLinetypeTableRecord
  2
COL
 70
    64
  3
Solid line (for MAPS)
 72
    65
 73
     0
 40
0.0
  0
LTYPE
  5
3D
100
AcDbSymbolTableRecord
100
AcDbLinetypeTableRecord
  2
LGN
 70
    64
  3
Solid line (for MAPS)
 72
    65
 73
     0
 40
0.0
  0
LTYPE
  5
3E
100
AcDbSymbolTableRecord
100
AcDbLinetypeTableRecord
  2
PNT
 70
    64
  3
Solid line (for MAPS)
 72
    65
 73
     0
 40
0.0
  0
ENDTAB
  0
TABLE
  2
LAYER
  5
3F
100
AcDbSymbolTable
 70
     1
  0
LAYER
  5
40
100
AcDbSymbolTableRecord
100
AcDbLayerTableRecord
  2
0
 70
     0
 62
     1
  6
CONTINUOUS
370
    -3
  0
LAYER
  5
41
100
AcDbSymbolTableRecord
100
AcDbLayerTableRecord
  2
DETAIL_1
 70
     0
 62
     7
  6
CONTINUOUS
370
    -3
  0
ENDTAB
  0
TABLE
  2
VIEW
  5
42
100
AcDbSymbolTable
 70
     0
  0
ENDTAB
  0
TABLE
  2
UCS
  5
43
100
AcDbSymbolTable
 70
     0
  0
ENDTAB
  0
TABLE
  2
APPID
  5
44
100
AcDbSymbolTable
 70
     1
  0
APPID
  5
45
100
AcDbSymbolTableRecord
100
AcDbRegAppTableRecord
  2
ACAD
 70
     0
  0
ENDTAB
  0
TABLE
  2
DIMSTYLE
  5
46
100
AcDbSymbolTable
 70
     0
  0
ENDTAB
  0
TABLE
  2
BLOCK_RECORD
  5
47
100
AcDbSymbolTable
 70
     0
  0
BLOCK_RECORD
  5
48
100
AcDbSymbolTableRecord
100
AcDbBlockTableRecord
  2
*MODEL_SPACE
  0
BLOCK_RECORD
  5
49
100
AcDbSymbolTableRecord
100
AcDbBlockTableRecord
  2
*PAPER_SPACE
  0
BLOCK_RECORD
  5
4A
100
AcDbSymbolTableRecord
100
AcDbBlockTableRecord
  2
CDWK_EXTR_0
  0
BLOCK_RECORD
  5
4B
100
AcDbSymbolTableRecord
100
AcDbBlockTableRecord
  2
CDWK_EXTR_1D
  0
BLOCK_RECORD
  5
4C
100
AcDbSymbolTableRecord
100
AcDbBlockTableRecord
  2
CDWK_EXTR_1G
  0
BLOCK_RECORD
  5
4D
100
AcDbSymbolTableRecord
100
AcDbBlockTableRecord
  2
CDWK_EXTR_2
  0
BLOCK_RECORD
  5
4E
100
AcDbSymbolTableRecord
100
AcDbBlockTableRecord
  2
CDWK_EXTR_3
  0
BLOCK_RECORD
  5
4F
100
AcDbSymbolTableRecord
100
AcDbBlockTableRecord
  2
CDWK_EXTR_4
  0
BLOCK_RECORD
  5
50
100
AcDbSymbolTableRecord
100
AcDbBlockTableRecord
  2
CDWK_PTTYP0
  0
BLOCK_RECORD
  5
51
100
AcDbSymbolTableRecord
100
AcDbBlockTableRecord
  2
*X1
  0
BLOCK_RECORD
  5
52
100
AcDbSymbolTableRecord
100
AcDbBlockTableRecord
  2
*X2
  0
BLOCK_RECORD
  5
53
100
AcDbSymbolTableRecord
100
AcDbBlockTableRecord
  2
*X3
  0
BLOCK_RECORD
  5
54
100
AcDbSymbolTableRecord
100
AcDbBlockTableRecord
  2
*X4
  0
BLOCK_RECORD
  5
55
100
AcDbSymbolTableRecord
100
AcDbBlockTableRecord
  2
*X5
  0
BLOCK_RECORD
  5
56
100
AcDbSymbolTableRecord
100
AcDbBlockTableRecord
  2
*X6
  0
BLOCK_RECORD
  5
57
100
AcDbSymbolTableRecord
100
AcDbBlockTableRecord
  2
*X7
  0
BLOCK_RECORD
  5
58
100
AcDbSymbolTableRecord
100
AcDbBlockTableRecord
  2
*X8
  0
ENDTAB
  0
ENDSEC
  0
SECTION
  2
BLOCKS
  0
BLOCK
  5
59
100
AcDbEntity
  8
0
100
AcDbBlockBegin
  2
*MODEL_SPACE
 70
     0
 10
0.0
 20
0.0
 30
0.0
  3
*MODEL_SPACE
  1

  0
ENDBLK
  5
5A
100
AcDbEntity
100
AcDbBlockEnd
  0
BLOCK
  5
5B
100
AcDbEntity
  8
0
100
AcDbBlockBegin
  2
*PAPER_SPACE
 70
     0
 10
0.0
 20
0.0
 30
0.0
  3
*PAPER_SPACE
  1

  0
ENDBLK
  5
5C
100
AcDbEntity
100
AcDbBlockEnd
  0
BLOCK
  5
5D
100
AcDbEntity
  8
0
100
AcDbBlockBegin
  2
CDWK_EXTR_0
 70
     0
 10
0.0
 20
0.0
 30
0.0
  3
CDWK_EXTR_0
  1

  4
Cadwork line-extremity
  0
LINE
  5
5E
100
AcDbEntity
  8
0
 62
     0
370
    -2
100
AcDbLine
 10
0.0
 20
0.0
 30
0.0
 11
2.0
 21
0.5
 31
0.0
  0
LINE
  5
5F
100
AcDbEntity
  8
0
 62
     0
370
    -2
100
AcDbLine
 10
0.0
 20
0.0
 30
0.0
 11
2.0
 21
-0.5
 31
0.0
  0
LINE
  5
60
100
AcDbEntity
  8
0
 62
     0
370
    -2
100
AcDbLine
 10
2.0
 20
0.5
 30
0.0
 11
2.0
 21
-0.5
 31
0.0
  0
ENDBLK
  5
61
100
AcDbEntity
100
AcDbBlockEnd
  0
BLOCK
  5
62
100
AcDbEntity
  8
0
100
AcDbBlockBegin
  2
CDWK_EXTR_1D
 70
     0
 10
0.0
 20
0.0
 30
0.0
  3
CDWK_EXTR_1D
  1

  4
Cadwork line-extremity
  0
LINE
  5
63
100
AcDbEntity
  8
0
 62
     0
370
    -2
100
AcDbLine
 10
0.0
 20
0.0
 30
0.0
 11
0.0
 21
1.0
 31
0.0
  0
LINE
  5
64
100
AcDbEntity
  8
0
 62
     0
370
    -2
100
AcDbLine
 10
0.0
 20
1.0
 30
0.0
 11
0.5
 21
1.5
 31
0.0
  0
LINE
  5
65
100
AcDbEntity
  8
0
 62
     0
370
    -2
100
AcDbLine
 10
0.5
 20
1.5
 30
0.0
 11
1.5
 21
1.5
 31
0.0
  0
ENDBLK
  5
66
100
AcDbEntity
100
AcDbBlockEnd
  0
BLOCK
  5
67
100
AcDbEntity
  8
0
100
AcDbBlockBegin
  2
CDWK_EXTR_1G
 70
     0
 10
0.0
 20
0.0
 30
0.0
  3
CDWK_EXTR_1G
  1

  4
Cadwork line-extremity
  0
LINE
  5
68
100
AcDbEntity
  8
0
 62
     0
370
    -2
100
AcDbLine
 10
0.0
 20
0.0
 30
0.0
 11
0.0
 21
-1.0
 31
0.0
  0
LINE
  5
69
100
AcDbEntity
  8
0
 62
     0
370
    -2
100
AcDbLine
 10
0.0
 20
-1.0
 30
0.0
 11
0.5
 21
-1.5
 31
0.0
  0
LINE
  5
6A
100
AcDbEntity
  8
0
 62
     0
370
    -2
100
AcDbLine
 10
0.5
 20
-1.5
 30
0.0
 11
1.5
 21
-1.5
 31
0.0
  0
ENDBLK
  5
6B
100
AcDbEntity
100
AcDbBlockEnd
  0
BLOCK
  5
6C
100
AcDbEntity
  8
0
100
AcDbBlockBegin
  2
CDWK_EXTR_2
 70
     0
 10
0.0
 20
0.0
 30
0.0
  3
CDWK_EXTR_2
  1

  4
Cadwork line-extremity
  0
SOLID
  5
6D
100
AcDbEntity
  8
0
 62
     0
100
AcDbTrace
 10
0.0
 20
0.0
 11
2.0
 21
0.5
 12
2.0
 22
-0.5
 13
2.0
 23
-0.5
  0
ENDBLK
  5
6E
100
AcDbEntity
100
AcDbBlockEnd
  0
BLOCK
  5
6F
100
AcDbEntity
  8
0
100
AcDbBlockBegin
  2
CDWK_EXTR_3
 70
     0
 10
0.0
 20
0.0
 30
0.0
  3
CDWK_EXTR_3
  1

  4
Cadwork line-extremity
  0
SOLID
  5
70
100
AcDbEntity
  8
0
 62
     0
100
AcDbTrace
 10
0.0
 20
0.0
 11
2.0
 21
0.5
 12
2.0
 22
-0.5
 13
2.0
 23
-0.5
  0
LINE
  5
71
100
AcDbEntity
  8
0
 62
     0
370
    -2
100
AcDbLine
 10
0.0
 20
1.0
 30
0.0
 11
0.0
 21
-1.0
 31
0.0
  0
ENDBLK
  5
72
100
AcDbEntity
100
AcDbBlockEnd
  0
BLOCK
  5
73
100
AcDbEntity
  8
0
100
AcDbBlockBegin
  2
CDWK_EXTR_4
 70
     0
 10
0.0
 20
0.0
 30
0.0
  3
CDWK_EXTR_4
  1

  4
Cadwork line-extremity
  0
HATCH
  5
74
100
AcDbEntity
  8
0
 62
     0
370
   211
100
AcDbHatch
 10
0.0
 20
0.0
 30
0.0
210
0.0
220
0.0
230
1.0
  2
SOLID
 70
     1
 71
     0
 91
        1
 92
        1
 93
        1
 72
     2
 10
0.0
 20
0.0
 40
0.5
 50
0.0
 51
360.0
 73
     1
 97
        0
 75
     0
 76
     1
 98
        1
 10
0.0
 20
0.0
  0
ENDBLK
  5
75
100
AcDbEntity
100
AcDbBlockEnd
  0
BLOCK
  5
76
100
AcDbEntity
  8
0
100
AcDbBlockBegin
  2
CDWK_PTTYP0
 70
     0
 10
0.0
 20
0.0
 30
0.0
  3
CDWK_PTTYP0
  1

  4
Cadwork point
  0
POINT
  5
77
100
AcDbEntity
  8
0
 62
     0
100
AcDbPoint
 10
0.0
 20
0.0
 30
0.0
  0
ENDBLK
  5
78
100
AcDbEntity
100
AcDbBlockEnd
  0
BLOCK
  5
79
100
AcDbEntity
  8
DETAIL_1
100
AcDbBlockBegin
  2
*X1
 70
     1
 10
0.0
 20
0.0
 30
0.0
  3
*X1
  1

  4
Cadwork hatch
  0
LINE
  5
7A
100
AcDbEntity
  8
DETAIL_1
 62
    42
  6
CONTINUOUS
370
    -2
100
AcDbLine
 10
-1730.62069163
 20
2578.77512457
 30
0.0
 11
-1761.75195408
 21
2578.77512457
 31
0.0
  0
LINE
  5
7B
100
AcDbEntity
  8
DETAIL_1
 62
    42
  6
CONTINUOUS
370
    -2
100
AcDbLine
 10
-1724.2642239
 20
2569.78984539
 30
0.0
 11
-1775.00668272
 21
2569.78984539
 31
0.0
  0
LINE
  5
7C
100
AcDbEntity
  8
DETAIL_1
 62
    42
  6
CONTINUOUS
370
    -2
100
AcDbLine
 10
-1725.66583184
 20
2560.80456621
 30
0.0
 11
-1743.25359292
 21
2560.80456621
 31
0.0
  0
LINE
  5
7D
100
AcDbEntity
  8
DETAIL_1
 62
    42
  6
CONTINUOUS
370
    -2
100
AcDbLine
 10
-1743.25359292
 20
2560.80456621
 30
0.0
 11
-1744.9645818
 21
2560.80456621
 31
0.0
  0
LINE
  5
7E
100
AcDbEntity
  8
DETAIL_1
 62
    42
  6
CONTINUOUS
370
    -2
100
AcDbLine
 10
-1760.37697081
 20
2560.80456621
 30
0.0
 11
-1781.15717987
 21
2560.80456621
 31
0.0
  0
LINE
  5
7F
100
AcDbEntity
  8
DETAIL_1
 62
    42
  6
CONTINUOUS
370
    -2
100
AcDbLine
 10
-1727.06743978
 20
2551.81928703
 30
0.0
 11
-1740.99997665
 21
2551.81928703
 31
0.0
  0
LINE
  5
80
100
AcDbEntity
  8
DETAIL_1
 62
    42
  6
CONTINUOUS
370
    -2
100
AcDbLine
 10
-1740.99997665
 20
2551.81928703
 30
0.0
 11
-1746.46052706
 21
2551.81928703
 31
0.0
  0
LINE
  5
81
100
AcDbEntity
  8
DETAIL_1
 62
    42
  6
CONTINUOUS
370
    -2
100
AcDbLine
 10
-1765.0401234
 20
2551.81928703
 30
0.0
 11
-1784.41705046
 21
2551.81928703
 31
0.0
  0
LINE
  5
82
100
AcDbEntity
  8
DETAIL_1
 62
    42
  6
CONTINUOUS
370
    -2
100
AcDbLine
 10
-1728.46904771
 20
2542.83400785
 30
0.0
 11
-1738.74636038
 21
2542.83400785
 31
0.0
  0
LINE
  5
83
100
AcDbEntity
  8
DETAIL_1
 62
    42
  6
CONTINUOUS
370
    -2
100
AcDbLine
 10
-1738.74636038
 20
2542.83400785
 30
0.0
 11
-1747.95647232
 21
2542.83400785
 31
0.0
  0
LINE
  5
84
100
AcDbEntity
  8
DETAIL_1
 62
    42
  6
CONTINUOUS
370
    -2
100
AcDbLine
 10
-1766.26365226
 20
2542.83400785
 30
0.0
 11
-1785.76066708
 21
2542.83400785
 31
0.0
  0
LINE
  5
85
100
AcDbEntity
  8
DETAIL_1
 62
    42
  6
CONTINUOUS
370
    -2
100
AcDbLine
 10
-1729.87065565
 20
2533.84872867
 30
0.0
 11
-1736.49274411
 21
2533.84872867
 31
0.0
  0
LINE
  5
86
100
AcDbEntity
  8
DETAIL_1
 62
    42
  6
CONTINUOUS
370
    -2
100
AcDbLine
 10
-1736.49274411
 20
2533.84872867
 30
0.0
 11
-1755.28005632
 21
2533.84872867
 31
0.0
  0
LINE
  5
87
100
AcDbEntity
  8
DETAIL_1
 62
    42
  6
CONTINUOUS
370
    -2
100
AcDbLine
 10
-1763.11335241
 20
2533.84872867
 30
0.0
 11
-1785.55926365
 21
2533.84872867
 31
0.0
  0
LINE
  5
88
100
AcDbEntity
  8
DETAIL_1
 62
    42
  6
CONTINUOUS
370
    -2
100
AcDbLine
 10
-1731.27226359
 20
2524.86344949
 30
0.0
 11
-1734.23912784
 21
2524.86344949
 31
0.0
  0
LINE
  5
89
100
AcDbEntity
  8
DETAIL_1
 62
    42
  6
CONTINUOUS
370
    -2
100
AcDbLine
 10
-1734.23912784
 20
2524.86344949
 30
0.0
 11
-1750.64455573
 21
2524.86344949
 31
0.0
  0
LINE
  5
8A
100
AcDbEntity
  8
DETAIL_1
 62
    42
  6
CONTINUOUS
370
    -2
100
AcDbLine
 10
-1751.1934667
 20
2524.86344949
 30
0.0
 11
-1782.73084367
 21
2524.86344949
 31
0.0
  0
LINE
  5
8B
100
AcDbEntity
  8
DETAIL_1
 62
    42
  6
CONTINUOUS
370
    -2
100
AcDbLine
 10
-1732.87095354
 20
2515.87817031
 30
0.0
 11
-1752.69482744
 21
2515.87817031
 31
0.0
  0
LINE
  5
8C
100
AcDbEntity
  8
DETAIL_1
 62
    42
  6
CONTINUOUS
370
    -2
100
AcDbLine
 10
-1736.0449853
 20
2506.89289113
 30
0.0
 11
-1763.56434681
 21
2506.89289113
 31
0.0
  0
LINE
  5
8D
100
AcDbEntity
  8
DETAIL_1
 62
    42
  6
CONTINUOUS
370
    -2
100
AcDbLine
 10
-1769.90074336
 20
2506.89289113
 30
0.0
 11
-1788.53977299
 21
2506.89289113
 31
0.0
  0
LINE
  5
8E
100
AcDbEntity
  8
DETAIL_1
 62
    42
  6
CONTINUOUS
370
    -2
100
AcDbLine
 10
-1743.00610662
 20
2497.90761195
 30
0.0
 11
-1791.48253153
 21
2497.90761195
 31
0.0
  0
ENDBLK
  5
8F
100
AcDbEntity
100
AcDbBlockEnd
  0
BLOCK
  5
90
100
AcDbEntity
  8
DETAIL_1
100
AcDbBlockBegin
  2
*X2
 70
     1
 10
0.0
 20
0.0
 30
0.0
  3
*X2
  1

  4
Cadwork hatch
  0
LINE
  5
91
100
AcDbEntity
  8
DETAIL_1
 62
    42
  6
CONTINUOUS
370
    -2
100
AcDbLine
 10
-1673.14611711
 20
2575.12294974
 30
0.0
 11
-1710.84707521
 21
2575.12294974
 31
0.0
  0
LINE
  5
92
100
AcDbEntity
  8
DETAIL_1
 62
    42
  6
CONTINUOUS
370
    -2
100
AcDbLine
 10
-1668.16258107
 20
2568.36409685
 30
0.0
 11
-1717.20352239
 21
2568.36409685
 31
0.0
  0
LINE
  5
93
100
AcDbEntity
  8
DETAIL_1
 62
    42
  6
CONTINUOUS
370
    -2
100
AcDbLine
 10
-1665.78900608
 20
2561.60524396
 30
0.0
 11
-1685.58718984
 21
2561.60524396
 31
0.0
  0
LINE
  5
94
100
AcDbEntity
  8
DETAIL_1
 62
    42
  6
CONTINUOUS
370
    -2
100
AcDbLine
 10
-1700.44370953
 20
2561.60524396
 30
0.0
 11
-1720.98763463
 21
2561.60524396
 31
0.0
  0
LINE
  5
95
100
AcDbEntity
  8
DETAIL_1
 62
    42
  6
CONTINUOUS
370
    -2
100
AcDbLine
 10
-1664.93794709
 20
2554.84639108
 30
0.0
 11
-1684.26895111
 21
2554.84639108
 31
0.0
  0
LINE
  5
96
100
AcDbEntity
  8
DETAIL_1
 62
    42
  6
CONTINUOUS
370
    -2
100
AcDbLine
 10
-1703.643429
 20
2554.84639108
 30
0.0
 11
-1723.29401306
 21
2554.84639108
 31
0.0
  0
LINE
  5
97
100
AcDbEntity
  8
DETAIL_1
 62
    42
  6
CONTINUOUS
370
    -2
100
AcDbLine
 10
-1665.15452224
 20
2548.08753819
 30
0.0
 11
-1684.57325914
 21
2548.08753819
 31
0.0
  0
LINE
  5
98
100
AcDbEntity
  8
DETAIL_1
 62
    42
  6
CONTINUOUS
370
    -2
100
AcDbLine
 10
-1705.08458314
 20
2548.08753819
 30
0.0
 11
-1724.5001888
 21
2548.08753819
 31
0.0
  0
LINE
  5
99
100
AcDbEntity
  8
DETAIL_1
 62
    42
  6
CONTINUOUS
370
    -2
100
AcDbLine
 10
-1666.31716529
 20
2541.32868531
 30
0.0
 11
-1685.93539236
 21
2541.32868531
 31
0.0
  0
LINE
  5
9A
100
AcDbEntity
  8
DETAIL_1
 62
    42
  6
CONTINUOUS
370
    -2
100
AcDbLine
 10
-1705.43577697
 20
2541.32868531
 30
0.0
 11
-1724.7695645
 21
2541.32868531
 31
0.0
  0
LINE
  5
9B
100
AcDbEntity
  8
DETAIL_1
 62
    42
  6
CONTINUOUS
370
    -2
100
AcDbLine
 10
-1668.56673958
 20
2534.56983242
 30
0.0
 11
-1688.3361752
 21
2534.56983242
 31
0.0
  0
LINE
  5
9C
100
AcDbEntity
  8
DETAIL_1
 62
    42
  6
CONTINUOUS
370
    -2
100
AcDbLine
 10
-1688.3361752
 20
2534.56983242
 30
0.0
 11
-1688.96490994
 21
2534.56983242
 31
0.0
  0
LINE
  5
9D
100
AcDbEntity
  8
DETAIL_1
 62
    42
  6
CONTINUOUS
370
    -2
100
AcDbLine
 10
-1704.2135687
 20
2534.56983242
 30
0.0
 11
-1723.99574055
 21
2534.56983242
 31
0.0
  0
LINE
  5
9E
100
AcDbEntity
  8
DETAIL_1
 62
    42
  6
CONTINUOUS
370
    -2
100
AcDbLine
 10
-1672.28442354
 20
2527.81097953
 30
0.0
 11
-1690.81010343
 21
2527.81097953
 31
0.0
  0
LINE
  5
9F
100
AcDbEntity
  8
DETAIL_1
 62
    42
  6
CONTINUOUS
370
    -2
100
AcDbLine
 10
-1690.81010343
 20
2527.81097953
 30
0.0
 11
-1721.69768703
 21
2527.81097953
 31
0.0
  0
LINE
  5
A0
100
AcDbEntity
  8
DETAIL_1
 62
    42
  6
CONTINUOUS
370
    -2
100
AcDbLine
 10
-1678.48913105
 20
2521.05212665
 30
0.0
 11
-1693.28403167
 21
2521.05212665
 31
0.0
  0
LINE
  5
A1
100
AcDbEntity
  8
DETAIL_1
 62
    42
  6
CONTINUOUS
370
    -2
100
AcDbLine
 10
-1693.28403167
 20
2521.05212665
 30
0.0
 11
-1716.85683252
 21
2521.05212665
 31
0.0
  0
LINE
  5
A2
100
AcDbEntity
  8
DETAIL_1
 62
    42
  6
CONTINUOUS
370
    -2
100
AcDbLine
 10
-1695.26613835
 20
2514.29327376
 30
0.0
 11
-1695.75795991
 21
2514.29327376
 31
0.0
  0
LINE
  5
A3
100
AcDbEntity
  8
DETAIL_1
 62
    42
  6
CONTINUOUS
370
    -2
100
AcDbLine
 10
-1695.75795991
 20
2514.29327376
 30
0.0
 11
-1701.3076116
 21
2514.29327376
 31
0.0
  0
ENDBLK
  5
A4
100
AcDbEntity
100
AcDbBlockEnd
  0
BLOCK
  5
A5
100
AcDbEntity
  8
DETAIL_1
100
AcDbBlockBegin
  2
*X3
 70
     1
 10
0.0
 20
0.0
 30
0.0
  3
*X3
  1

  4
Cadwork hatch
  0
LINE
  5
A6
100
AcDbEntity
  8
DETAIL_1
 62
    42
  6
CONTINUOUS
370
    -2
100
AcDbLine
 10
-1644.68407715
 20
2590.85294054
 30
0.0
 11
-1650.77392161
 21
2590.85294054
 31
0.0
  0
LINE
  5
A7
100
AcDbEntity
  8
DETAIL_1
 62
    42
  6
CONTINUOUS
370
    -2
100
AcDbLine
 10
-1639.12886692
 20
2588.18470888
 30
0.0
 11
-1642.02585926
 21
2588.18470888
 31
0.0
  0
LINE
  5
A8
100
AcDbEntity
  8
DETAIL_1
 62
    42
  6
CONTINUOUS
370
    -2
100
AcDbLine
 10
-1653.48014655
 20
2588.18470888
 30
0.0
 11
-1656.30778235
 21
2588.18470888
 31
0.0
  0
LINE
  5
A9
100
AcDbEntity
  8
DETAIL_1
 62
    42
  6
CONTINUOUS
370
    -2
100
AcDbLine
 10
-1636.81281578
 20
2585.51647722
 30
0.0
 11
-1638.96726207
 21
2585.51647722
 31
0.0
  0
LINE
  5
AA
100
AcDbEntity
  8
DETAIL_1
 62
    42
  6
CONTINUOUS
370
    -2
100
AcDbLine
 10
-1656.53916281
 20
2585.51647722
 30
0.0
 11
-1658.64766955
 21
2585.51647722
 31
0.0
  0
LINE
  5
AB
100
AcDbEntity
  8
DETAIL_1
 62
    42
  6
CONTINUOUS
370
    -2
100
AcDbLine
 10
-1635.54319703
 20
2582.84824556
 30
0.0
 11
-1637.4937988
 21
2582.84824556
 31
0.0
  0
LINE
  5
AC
100
AcDbEntity
  8
DETAIL_1
 62
    42
  6
CONTINUOUS
370
    -2
100
AcDbLine
 10
-1658.0130004
 20
2582.84824556
 30
0.0
 11
-1659.94105863
 21
2582.84824556
 31
0.0
  0
LINE
  5
AD
100
AcDbEntity
  8
DETAIL_1
 62
    42
  6
CONTINUOUS
370
    -2
100
AcDbLine
 10
-1634.90198603
 20
2580.18001391
 30
0.0
 11
-1636.80381341
 21
2580.18001391
 31
0.0
  0
LINE
  5
AE
100
AcDbEntity
  8
DETAIL_1
 62
    42
  6
CONTINUOUS
370
    -2
100
AcDbLine
 10
-1658.7032125
 20
2580.18001391
 30
0.0
 11
-1660.59894277
 21
2580.18001391
 31
0.0
  0
LINE
  5
AF
100
AcDbEntity
  8
DETAIL_1
 62
    42
  6
CONTINUOUS
370
    -2
100
AcDbLine
 10
-1634.73603239
 20
2577.51178225
 30
0.0
 11
-1636.63071446
 21
2577.51178225
 31
0.0
  0
LINE
  5
B0
100
AcDbEntity
  8
DETAIL_1
 62
    42
  6
CONTINUOUS
370
    -2
100
AcDbLine
 10
-1658.87629453
 20
2577.51178225
 30
0.0
 11
-1660.77061406
 21
2577.51178225
 31
0.0
  0
LINE
  5
B1
100
AcDbEntity
  8
DETAIL_1
 62
    42
  6
CONTINUOUS
370
    -2
100
AcDbLine
 10
-1634.99993633
 20
2574.84355059
 30
0.0
 11
-1636.90445646
 21
2574.84355059
 31
0.0
  0
LINE
  5
B2
100
AcDbEntity
  8
DETAIL_1
 62
    42
  6
CONTINUOUS
370
    -2
100
AcDbLine
 10
-1658.59982112
 20
2574.84355059
 30
0.0
 11
-1660.51520535
 21
2574.84355059
 31
0.0
  0
LINE
  5
B3
100
AcDbEntity
  8
DETAIL_1
 62
    42
  6
CONTINUOUS
370
    -2
100
AcDbLine
 10
-1635.78390086
 20
2572.17531893
 30
0.0
 11
-1637.74018344
 21
2572.17531893
 31
0.0
  0
LINE
  5
B4
100
AcDbEntity
  8
DETAIL_1
 62
    42
  6
CONTINUOUS
370
    -2
100
AcDbLine
 10
-1657.75723858
 20
2572.17531893
 30
0.0
 11
-1659.75040894
 21
2572.17531893
 31
0.0
  0
LINE
  5
B5
100
AcDbEntity
  8
DETAIL_1
 62
    42
  6
CONTINUOUS
370
    -2
100
AcDbLine
 10
-1637.26686848
 20
2569.50708727
 30
0.0
 11
-1639.46127387
 21
2569.50708727
 31
0.0
  0
LINE
  5
B6
100
AcDbEntity
  8
DETAIL_1
 62
    42
  6
CONTINUOUS
370
    -2
100
AcDbLine
 10
-1656.02655775
 20
2569.50708727
 30
0.0
 11
-1658.29124288
 21
2569.50708727
 31
0.0
  0
LINE
  5
B7
100
AcDbEntity
  8
DETAIL_1
 62
    42
  6
CONTINUOUS
370
    -2
100
AcDbLine
 10
-1639.97967633
 20
2566.83885561
 30
0.0
 11
-1643.0125591
 21
2566.83885561
 31
0.0
  0
LINE
  5
B8
100
AcDbEntity
  8
DETAIL_1
 62
    42
  6
CONTINUOUS
370
    -2
100
AcDbLine
 10
-1643.0125591
 20
2566.83885561
 30
0.0
 11
-1643.31969705
 21
2566.83885561
 31
0.0
  0
LINE
  5
B9
100
AcDbEntity
  8
DETAIL_1
 62
    42
  6
CONTINUOUS
370
    -2
100
AcDbLine
 10
-1652.16379609
 20
2566.83885561
 30
0.0
 11
-1655.60007622
 21
2566.83885561
 31
0.0
  0
ENDBLK
  5
BA
100
AcDbEntity
100
AcDbBlockEnd
  0
BLOCK
  5
BB
100
AcDbEntity
  8
DETAIL_1
100
AcDbBlockBegin
  2
*X4
 70
     1
 10
0.0
 20
0.0
 30
0.0
  3
*X4
  1

  4
Cadwork hatch
  0
LINE
  5
BC
100
AcDbEntity
  8
DETAIL_1
 62
    42
  6
CONTINUOUS
370
    -2
100
AcDbLine
 10
-1643.37434421
 20
2584.51919893
 30
0.0
 11
-1653.090615
 21
2584.51919893
 31
0.0
  0
LINE
  5
BD
100
AcDbEntity
  8
DETAIL_1
 62
    42
  6
CONTINUOUS
370
    -2
100
AcDbLine
 10
-1642.14210489
 20
2583.03298893
 30
0.0
 11
-1653.090615
 21
2583.03298893
 31
0.0
  0
LINE
  5
BE
100
AcDbEntity
  8
DETAIL_1
 62
    42
  6
CONTINUOUS
370
    -2
100
AcDbLine
 10
-1641.75754126
 20
2581.54677892
 30
0.0
 11
-1645.82790788
 21
2581.54677892
 31
0.0
  0
LINE
  5
BF
100
AcDbEntity
  8
DETAIL_1
 62
    42
  6
CONTINUOUS
370
    -2
100
AcDbLine
 10
-1649.1297172
 20
2581.54677892
 30
0.0
 11
-1653.090615
 21
2581.54677892
 31
0.0
  0
LINE
  5
C0
100
AcDbEntity
  8
DETAIL_1
 62
    42
  6
CONTINUOUS
370
    -2
100
AcDbLine
 10
-1641.81483962
 20
2580.06056892
 30
0.0
 11
-1645.64348926
 21
2580.06056892
 31
0.0
  0
LINE
  5
C1
100
AcDbEntity
  8
DETAIL_1
 62
    42
  6
CONTINUOUS
370
    -2
100
AcDbLine
 10
-1645.64348926
 20
2580.06056892
 30
0.0
 11
-1645.76281742
 21
2580.06056892
 31
0.0
  0
LINE
  5
C2
100
AcDbEntity
  8
DETAIL_1
 62
    42
  6
CONTINUOUS
370
    -2
100
AcDbLine
 10
-1649.1297172
 20
2580.06056892
 30
0.0
 11
-1653.090615
 21
2580.06056892
 31
0.0
  0
LINE
  5
C3
100
AcDbEntity
  8
DETAIL_1
 62
    42
  6
CONTINUOUS
370
    -2
100
AcDbLine
 10
-1642.38399874
 20
2578.57435891
 30
0.0
 11
-1645.54343163
 21
2578.57435891
 31
0.0
  0
LINE
  5
C4
100
AcDbEntity
  8
DETAIL_1
 62
    42
  6
CONTINUOUS
370
    -2
100
AcDbLine
 10
-1645.54343163
 20
2578.57435891
 30
0.0
 11
-1653.090615
 21
2578.57435891
 31
0.0
  0
LINE
  5
C5
100
AcDbEntity
  8
DETAIL_1
 62
    42
  6
CONTINUOUS
370
    -2
100
AcDbLine
 10
-1644.04427496
 20
2577.08814891
 30
0.0
 11
-1645.443374
 21
2577.08814891
 31
0.0
  0
LINE
  5
C6
100
AcDbEntity
  8
DETAIL_1
 62
    42
  6
CONTINUOUS
370
    -2
100
AcDbLine
 10
-1645.443374
 20
2577.08814891
 30
0.0
 11
-1653.090615
 21
2577.08814891
 31
0.0
  0
LINE
  5
C7
100
AcDbEntity
  8
DETAIL_1
 62
    42
  6
CONTINUOUS
370
    -2
100
AcDbLine
 10
-1643.4806185
 20
2575.6019389
 30
0.0
 11
-1645.34331636
 21
2575.6019389
 31
0.0
  0
LINE
  5
C8
100
AcDbEntity
  8
DETAIL_1
 62
    42
  6
CONTINUOUS
370
    -2
100
AcDbLine
 10
-1645.34331636
 20
2575.6019389
 30
0.0
 11
-1648.06588031
 21
2575.6019389
 31
0.0
  0
LINE
  5
C9
100
AcDbEntity
  8
DETAIL_1
 62
    42
  6
CONTINUOUS
370
    -2
100
AcDbLine
 10
-1649.12971721
 20
2575.6019389
 30
0.0
 11
-1653.090615
 21
2575.6019389
 31
0.0
  0
LINE
  5
CA
100
AcDbEntity
  8
DETAIL_1
 62
    42
  6
CONTINUOUS
370
    -2
100
AcDbLine
 10
-1642.48938892
 20
2574.1157289
 30
0.0
 11
-1645.24325873
 21
2574.1157289
 31
0.0
  0
LINE
  5
CB
100
AcDbEntity
  8
DETAIL_1
 62
    42
  6
CONTINUOUS
370
    -2
100
AcDbLine
 10
-1645.24325873
 20
2574.1157289
 30
0.0
 11
-1647.12917267
 21
2574.1157289
 31
0.0
  0
LINE
  5
CC
100
AcDbEntity
  8
DETAIL_1
 62
    42
  6
CONTINUOUS
370
    -2
100
AcDbLine
 10
-1649.1297172
 20
2574.1157289
 30
0.0
 11
-1653.090615
 21
2574.1157289
 31
0.0
  0
LINE
  5
CD
100
AcDbEntity
  8
DETAIL_1
 62
    42
  6
CONTINUOUS
370
    -2
100
AcDbLine
 10
-1641.49815935
 20
2572.62951889
 30
0.0
 11
-1645.14320109
 21
2572.62951889
 31
0.0
  0
LINE
  5
CE
100
AcDbEntity
  8
DETAIL_1
 62
    42
  6
CONTINUOUS
370
    -2
100
AcDbLine
 10
-1645.14320109
 20
2572.62951889
 30
0.0
 11
-1646.19246503
 21
2572.62951889
 31
0.0
  0
LINE
  5
CF
100
AcDbEntity
  8
DETAIL_1
 62
    42
  6
CONTINUOUS
370
    -2
100
AcDbLine
 10
-1649.1297172
 20
2572.62951889
 30
0.0
 11
-1653.090615
 21
2572.62951889
 31
0.0
  0
LINE
  5
D0
100
AcDbEntity
  8
DETAIL_1
 62
    42
  6
CONTINUOUS
370
    -2
100
AcDbLine
 10
-1642.47014283
 20
2571.14330889
 30
0.0
 11
-1645.04314346
 21
2571.14330889
 31
0.0
  0
LINE
  5
D1
100
AcDbEntity
  8
DETAIL_1
 62
    42
  6
CONTINUOUS
370
    -2
100
AcDbLine
 10
-1645.04314346
 20
2571.14330889
 30
0.0
 11
-1645.25575739
 21
2571.14330889
 31
0.0
  0
LINE
  5
D2
100
AcDbEntity
  8
DETAIL_1
 62
    42
  6
CONTINUOUS
370
    -2
100
AcDbLine
 10
-1649.1297172
 20
2571.14330889
 30
0.0
 11
-1653.090615
 21
2571.14330889
 31
0.0
  0
ENDBLK
  5
D3
100
AcDbEntity
100
AcDbBlockEnd
  0
BLOCK
  5
D4
100
AcDbEntity
  8
DETAIL_1
100
AcDbBlockBegin
  2
*X5
 70
     1
 10
0.0
 20
0.0
 30
0.0
  3
*X5
  1

  4
Cadwork hatch
  0
LINE
  5
D5
100
AcDbEntity
  8
DETAIL_1
 62
    42
  6
CONTINUOUS
370
    -2
100
AcDbLine
 10
-1784.51779406
 20
2575.95872873
 30
0.0
 11
-1810.12470518
 21
2575.95872873
 31
0.0
  0
LINE
  5
D6
100
AcDbEntity
  8
DETAIL_1
 62
    42
  6
CONTINUOUS
370
    -2
100
AcDbLine
 10
-1810.12470518
 20
2575.95872873
 30
0.0
 11
-1828.69286082
 21
2575.95872873
 31
0.0
  0
LINE
  5
D7
100
AcDbEntity
  8
DETAIL_1
 62
    42
  6
CONTINUOUS
370
    -2
100
AcDbLine
 10
-1855.58494554
 20
2575.95872873
 30
0.0
 11
-1889.22418662
 21
2575.95872873
 31
0.0
  0
LINE
  5
D8
100
AcDbEntity
  8
DETAIL_1
 62
    42
  6
CONTINUOUS
370
    -2
100
AcDbLine
 10
-1785.92710062
 20
2566.92027705
 30
0.0
 11
-1806.33793085
 21
2566.92027705
 31
0.0
  0
LINE
  5
D9
100
AcDbEntity
  8
DETAIL_1
 62
    42
  6
CONTINUOUS
370
    -2
100
AcDbLine
 10
-1806.33793085
 20
2566.92027705
 30
0.0
 11
-1838.61792067
 21
2566.92027705
 31
0.0
  0
LINE
  5
DA
100
AcDbEntity
  8
DETAIL_1
 62
    42
  6
CONTINUOUS
370
    -2
100
AcDbLine
 10
-1849.99145938
 20
2566.92027705
 30
0.0
 11
-1868.36353375
 21
2566.92027705
 31
0.0
  0
LINE
  5
DB
100
AcDbEntity
  8
DETAIL_1
 62
    42
  6
CONTINUOUS
370
    -2
100
AcDbLine
 10
-1878.69911932
 20
2566.92027705
 30
0.0
 11
-1897.83084781
 21
2566.92027705
 31
0.0
  0
LINE
  5
DC
100
AcDbEntity
  8
DETAIL_1
 62
    42
  6
CONTINUOUS
370
    -2
100
AcDbLine
 10
-1787.33640719
 20
2557.88182537
 30
0.0
 11
-1806.66372792
 21
2557.88182537
 31
0.0
  0
LINE
  5
DD
100
AcDbEntity
  8
DETAIL_1
 62
    42
  6
CONTINUOUS
370
    -2
100
AcDbLine
 10
-1823.70258126
 20
2557.88182537
 30
0.0
 11
-1843.67841946
 21
2557.88182537
 31
0.0
  0
LINE
  5
DE
100
AcDbEntity
  8
DETAIL_1
 62
    42
  6
CONTINUOUS
370
    -2
100
AcDbLine
 10
-1848.36303125
 20
2557.88182537
 30
0.0
 11
-1865.74789828
 21
2557.88182537
 31
0.0
  0
LINE
  5
DF
100
AcDbEntity
  8
DETAIL_1
 62
    42
  6
CONTINUOUS
370
    -2
100
AcDbLine
 10
-1884.74289643
 20
2557.88182537
 30
0.0
 11
-1902.29622143
 21
2557.88182537
 31
0.0
  0
LINE
  5
E0
100
AcDbEntity
  8
DETAIL_1
 62
    42
  6
CONTINUOUS
370
    -2
100
AcDbLine
 10
-1788.74571375
 20
2548.84337369
 30
0.0
 11
-1808.16983825
 21
2548.84337369
 31
0.0
  0
LINE
  5
E1
100
AcDbEntity
  8
DETAIL_1
 62
    42
  6
CONTINUOUS
370
    -2
100
AcDbLine
 10
-1826.92811404
 20
2548.84337369
 30
0.0
 11
-1846.25756135
 21
2548.84337369
 31
0.0
  0
LINE
  5
E2
100
AcDbEntity
  8
DETAIL_1
 62
    42
  6
CONTINUOUS
370
    -2
100
AcDbLine
 10
-1848.82604045
 20
2548.84337369
 30
0.0
 11
-1886.21119832
 21
2548.84337369
 31
0.0
  0
LINE
  5
E3
100
AcDbEntity
  8
DETAIL_1
 62
    42
  6
CONTINUOUS
370
    -2
100
AcDbLine
 10
-1886.21119832
 20
2548.84337369
 30
0.0
 11
-1904.48412245
 21
2548.84337369
 31
0.0
  0
LINE
  5
E4
100
AcDbEntity
  8
DETAIL_1
 62
    42
  6
CONTINUOUS
370
    -2
100
AcDbLine
 10
-1790.15502031
 20
2539.80492201
 30
0.0
 11
-1809.67594857
 21
2539.80492201
 31
0.0
  0
LINE
  5
E5
100
AcDbEntity
  8
DETAIL_1
 62
    42
  6
CONTINUOUS
370
    -2
100
AcDbLine
 10
-1827.3485757
 20
2539.80492201
 30
0.0
 11
-1847.08122315
 21
2539.80492201
 31
0.0
  0
LINE
  5
E6
100
AcDbEntity
  8
DETAIL_1
 62
    42
  6
CONTINUOUS
370
    -2
100
AcDbLine
 10
-1886.70282964
 20
2539.80492201
 30
0.0
 11
-1905.00067812
 21
2539.80492201
 31
0.0
  0
LINE
  5
E7
100
AcDbEntity
  8
DETAIL_1
 62
    42
  6
CONTINUOUS
370
    -2
100
AcDbLine
 10
-1791.56432687
 20
2530.76647033
 30
0.0
 11
-1860.68243989
 21
2530.76647033
 31
0.0
  0
LINE
  5
E8
100
AcDbEntity
  8
DETAIL_1
 62
    42
  6
CONTINUOUS
370
    -2
100
AcDbLine
 10
-1882.40714065
 20
2530.76647033
 30
0.0
 11
-1903.47768566
 21
2530.76647033
 31
0.0
  0
LINE
  5
E9
100
AcDbEntity
  8
DETAIL_1
 62
    42
  6
CONTINUOUS
370
    -2
100
AcDbLine
 10
-1792.97363344
 20
2521.72801865
 30
0.0
 11
-1812.50242082
 21
2521.72801865
 31
0.0
  0
LINE
  5
EA
100
AcDbEntity
  8
DETAIL_1
 62
    42
  6
CONTINUOUS
370
    -2
100
AcDbLine
 10
-1815.88939779
 20
2521.72801865
 30
0.0
 11
-1841.72241065
 21
2521.72801865
 31
0.0
  0
LINE
  5
EB
100
AcDbEntity
  8
DETAIL_1
 62
    42
  6
CONTINUOUS
370
    -2
100
AcDbLine
 10
-1848.80521543
 20
2521.72801865
 30
0.0
 11
-1898.03637425
 21
2521.72801865
 31
0.0
  0
LINE
  5
EC
100
AcDbEntity
  8
DETAIL_1
 62
    42
  6
CONTINUOUS
370
    -2
100
AcDbLine
 10
-1794.9416702
 20
2512.68956697
 30
0.0
 11
-1815.40406032
 21
2512.68956697
 31
0.0
  0
LINE
  5
ED
100
AcDbEntity
  8
DETAIL_1
 62
    42
  6
CONTINUOUS
370
    -2
100
AcDbLine
 10
-1799.11948931
 20
2503.65111529
 30
0.0
 11
-1850.8160301
 21
2503.65111529
 31
0.0
  0
LINE
  5
EE
100
AcDbEntity
  8
DETAIL_1
 62
    42
  6
CONTINUOUS
370
    -2
100
AcDbLine
 10
-1809.34356964
 20
2494.61266361
 30
0.0
 11
-1846.59748653
 21
2494.61266361
 31
0.0
  0
ENDBLK
  5
EF
100
AcDbEntity
100
AcDbBlockEnd
  0
BLOCK
  5
F0
100
AcDbEntity
  8
DETAIL_1
100
AcDbBlockBegin
  2
*X6
 70
     1
 10
0.0
 20
0.0
 30
0.0
  3
*X6
  1

  4
Cadwork hatch
  0
LINE
  5
F1
100
AcDbEntity
  8
DETAIL_1
 62
    28
  6
CONTINUOUS
370
    -2
100
AcDbLine
 10
-441.93028932
 20
2557.51271998
 30
0.0
 11
-462.02239481
 21
2557.51271998
 31
0.0
  0
LINE
  5
F2
100
AcDbEntity
  8
DETAIL_1
 62
    28
  6
CONTINUOUS
370
    -2
100
AcDbLine
 10
-437.71294392
 20
2553.49147357
 30
0.0
 11
-448.34251385
 21
2553.49147357
 31
0.0
  0
LINE
  5
F3
100
AcDbEntity
  8
DETAIL_1
 62
    28
  6
CONTINUOUS
370
    -2
100
AcDbLine
 10
-455.7380468
 20
2553.49147357
 30
0.0
 11
-466.27712706
 21
2553.49147357
 31
0.0
  0
LINE
  5
F4
100
AcDbEntity
  8
DETAIL_1
 62
    28
  6
CONTINUOUS
370
    -2
100
AcDbLine
 10
-435.49821576
 20
2549.47022715
 30
0.0
 11
-443.61857944
 21
2549.47022715
 31
0.0
  0
LINE
  5
F5
100
AcDbEntity
  8
DETAIL_1
 62
    28
  6
CONTINUOUS
370
    -2
100
AcDbLine
 10
-460.43466962
 20
2549.47022715
 30
0.0
 11
-468.53054119
 21
2549.47022715
 31
0.0
  0
LINE
  5
F6
100
AcDbEntity
  8
DETAIL_1
 62
    28
  6
CONTINUOUS
370
    -2
100
AcDbLine
 10
-434.33158992
 20
2545.44898074
 30
0.0
 11
-441.97352489
 21
2545.44898074
 31
0.0
  0
LINE
  5
F7
100
AcDbEntity
  8
DETAIL_1
 62
    28
  6
CONTINUOUS
370
    -2
100
AcDbLine
 10
-462.06366968
 20
2545.44898074
 30
0.0
 11
-469.7273639
 21
2545.44898074
 31
0.0
  0
LINE
  5
F8
100
AcDbEntity
  8
DETAIL_1
 62
    28
  6
CONTINUOUS
370
    -2
100
AcDbLine
 10
-433.87430477
 20
2541.42773432
 30
0.0
 11
-441.40275897
 21
2541.42773432
 31
0.0
  0
LINE
  5
F9
100
AcDbEntity
  8
DETAIL_1
 62
    28
  6
CONTINUOUS
370
    -2
100
AcDbLine
 10
-462.6275265
 20
2541.42773432
 30
0.0
 11
-470.20808778
 21
2541.42773432
 31
0.0
  0
LINE
  5
FA
100
AcDbEntity
  8
DETAIL_1
 62
    28
  6
CONTINUOUS
370
    -2
100
AcDbLine
 10
-433.98944139
 20
2537.40648791
 30
0.0
 11
-441.00243702
 21
2537.40648791
 31
0.0
  0
LINE
  5
FB
100
AcDbEntity
  8
DETAIL_1
 62
    28
  6
CONTINUOUS
370
    -2
100
AcDbLine
 10
-441.00243702
 20
2537.40648791
 30
0.0
 11
-441.53284874
 21
2537.40648791
 31
0.0
  0
LINE
  5
FC
100
AcDbEntity
  8
DETAIL_1
 62
    28
  6
CONTINUOUS
370
    -2
100
AcDbLine
 10
-462.49710959
 20
2537.40648791
 30
0.0
 11
-470.10485213
 21
2537.40648791
 31
0.0
  0
LINE
  5
FD
100
AcDbEntity
  8
DETAIL_1
 62
    28
  6
CONTINUOUS
370
    -2
100
AcDbLine
 10
-434.7319821
 20
2533.38524149
 30
0.0
 11
-442.4489537
 21
2533.38524149
 31
0.0
  0
LINE
  5
FE
100
AcDbEntity
  8
DETAIL_1
 62
    28
  6
CONTINUOUS
370
    -2
100
AcDbLine
 10
-461.58254205
 20
2533.38524149
 30
0.0
 11
-469.37953089
 21
2533.38524149
 31
0.0
  0
LINE
  5
FF
100
AcDbEntity
  8
DETAIL_1
 62
    28
  6
CONTINUOUS
370
    -2
100
AcDbLine
 10
-436.30215911
 20
2529.36399508
 30
0.0
 11
-444.79624738
 21
2529.36399508
 31
0.0
  0
LINE
  5
100
100
AcDbEntity
  8
DETAIL_1
 62
    28
  6
CONTINUOUS
370
    -2
100
AcDbLine
 10
-459.24321069
 20
2529.36399508
 30
0.0
 11
-467.83177254
 21
2529.36399508
 31
0.0
  0
LINE
  5
101
100
AcDbEntity
  8
DETAIL_1
 62
    28
  6
CONTINUOUS
370
    -2
100
AcDbLine
 10
-439.15278566
 20
2525.34274866
 30
0.0
 11
-465.00012292
 21
2525.34274866
 31
0.0
  0
LINE
  5
102
100
AcDbEntity
  8
DETAIL_1
 62
    28
  6
CONTINUOUS
370
    -2
100
AcDbLine
 10
-445.22572109
 20
2521.32150225
 30
0.0
 11
-458.95072999
 21
2521.32150225
 31
0.0
  0
ENDBLK
  5
103
100
AcDbEntity
100
AcDbBlockEnd
  0
BLOCK
  5
104
100
AcDbEntity
  8
DETAIL_1
100
AcDbBlockBegin
  2
*X7
 70
     1
 10
0.0
 20
0.0
 30
0.0
  3
*X7
  1

  4
Cadwork hatch
  0
LINE
  5
105
100
AcDbEntity
  8
DETAIL_1
 62
    28
  6
CONTINUOUS
370
    -2
100
AcDbLine
 10
-261.41524499
 20
2559.0994118
 30
0.0
 11
-265.3810557
 21
2559.0994118
 31
0.0
  0
LINE
  5
106
100
AcDbEntity
  8
DETAIL_1
 62
    28
  6
CONTINUOUS
370
    -2
100
AcDbLine
 10
-265.3810557
 20
2559.0994118
 30
0.0
 11
-265.96916089
 21
2559.0994118
 31
0.0
  0
LINE
  5
107
100
AcDbEntity
  8
DETAIL_1
 62
    28
  6
CONTINUOUS
370
    -2
100
AcDbLine
 10
-259.86579778
 20
2555.16233578
 30
0.0
 11
-263.71465731
 21
2555.16233578
 31
0.0
  0
LINE
  5
108
100
AcDbEntity
  8
DETAIL_1
 62
    28
  6
CONTINUOUS
370
    -2
100
AcDbLine
 10
-263.84086708
 20
2555.16233578
 30
0.0
 11
-267.51215001
 21
2555.16233578
 31
0.0
  0
LINE
  5
109
100
AcDbEntity
  8
DETAIL_1
 62
    28
  6
CONTINUOUS
370
    -2
100
AcDbLine
 10
-258.31635057
 20
2551.22525977
 30
0.0
 11
-262.1994748
 21
2551.22525977
 31
0.0
  0
LINE
  5
10A
100
AcDbEntity
  8
DETAIL_1
 62
    28
  6
CONTINUOUS
370
    -2
100
AcDbLine
 10
-265.3560496
 20
2551.22525977
 30
0.0
 11
-269.05513913
 21
2551.22525977
 31
0.0
  0
LINE
  5
10B
100
AcDbEntity
  8
DETAIL_1
 62
    28
  6
CONTINUOUS
370
    -2
100
AcDbLine
 10
-256.76690335
 20
2547.28818375
 30
0.0
 11
-260.68429228
 21
2547.28818375
 31
0.0
  0
LINE
  5
10C
100
AcDbEntity
  8
DETAIL_1
 62
    28
  6
CONTINUOUS
370
    -2
100
AcDbLine
 10
-266.87123211
 20
2547.28818375
 30
0.0
 11
-270.59812825
 21
2547.28818375
 31
0.0
  0
LINE
  5
10D
100
AcDbEntity
  8
DETAIL_1
 62
    28
  6
CONTINUOUS
370
    -2
100
AcDbLine
 10
-255.21745614
 20
2543.35110773
 30
0.0
 11
-259.16910977
 21
2543.35110773
 31
0.0
  0
LINE
  5
10E
100
AcDbEntity
  8
DETAIL_1
 62
    28
  6
CONTINUOUS
370
    -2
100
AcDbLine
 10
-268.38641462
 20
2543.35110773
 30
0.0
 11
-272.14111737
 21
2543.35110773
 31
0.0
  0
LINE
  5
10F
100
AcDbEntity
  8
DETAIL_1
 62
    28
  6
CONTINUOUS
370
    -2
100
AcDbLine
 10
-253.66800893
 20
2539.41403171
 30
0.0
 11
-257.65392726
 21
2539.41403171
 31
0.0
  0
LINE
  5
110
100
AcDbEntity
  8
DETAIL_1
 62
    28
  6
CONTINUOUS
370
    -2
100
AcDbLine
 10
-269.90159713
 20
2539.41403171
 30
0.0
 11
-273.68410649
 21
2539.41403171
 31
0.0
  0
LINE
  5
111
100
AcDbEntity
  8
DETAIL_1
 62
    28
  6
CONTINUOUS
370
    -2
100
AcDbLine
 10
-252.11856172
 20
2535.47695569
 30
0.0
 11
-275.22709561
 21
2535.47695569
 31
0.0
  0
LINE
  5
112
100
AcDbEntity
  8
DETAIL_1
 62
    28
  6
CONTINUOUS
370
    -2
100
AcDbLine
 10
-250.56911451
 20
2531.53987967
 30
0.0
 11
-254.5901087
 21
2531.53987967
 31
0.0
  0
LINE
  5
113
100
AcDbEntity
  8
DETAIL_1
 62
    28
  6
CONTINUOUS
370
    -2
100
AcDbLine
 10
-272.95462682
 20
2531.53987967
 30
0.0
 11
-276.77008473
 21
2531.53987967
 31
0.0
  0
LINE
  5
114
100
AcDbEntity
  8
DETAIL_1
 62
    28
  6
CONTINUOUS
370
    -2
100
AcDbLine
 10
-249.0196673
 20
2527.60280366
 30
0.0
 11
-253.06651659
 21
2527.60280366
 31
0.0
  0
LINE
  5
115
100
AcDbEntity
  8
DETAIL_1
 62
    28
  6
CONTINUOUS
370
    -2
100
AcDbLine
 10
-274.45496037
 20
2527.60280366
 30
0.0
 11
-278.31307385
 21
2527.60280366
 31
0.0
  0
LINE
  5
116
100
AcDbEntity
  8
DETAIL_1
 62
    28
  6
CONTINUOUS
370
    -2
100
AcDbLine
 10
-247.47022009
 20
2523.66572764
 30
0.0
 11
-251.54292448
 21
2523.66572764
 31
0.0
  0
LINE
  5
117
100
AcDbEntity
  8
DETAIL_1
 62
    28
  6
CONTINUOUS
370
    -2
100
AcDbLine
 10
-275.95529393
 20
2523.66572764
 30
0.0
 11
-279.85606297
 21
2523.66572764
 31
0.0
  0
ENDBLK
  5
118
100
AcDbEntity
100
AcDbBlockEnd
  0
BLOCK
  5
119
100
AcDbEntity
  8
DETAIL_1
100
AcDbBlockBegin
  2
*X8
 70
     1
 10
0.0
 20
0.0
 30
0.0
  3
*X8
  1

  4
Cadwork hatch
  0
LINE
  5
11A
100
AcDbEntity
  8
DETAIL_1
 62
    28
  6
CONTINUOUS
370
    -2
100
AcDbLine
 10
-123.53204533
 20
2559.0994118
 30
0.0
 11
-128.08596123
 21
2559.0994118
 31
0.0
  0
LINE
  5
11B
100
AcDbEntity
  8
DETAIL_1
 62
    28
  6
CONTINUOUS
370
    -2
100
AcDbLine
 10
-121.98259812
 20
2555.16233578
 30
0.0
 11
-125.83145765
 21
2555.16233578
 31
0.0
  0
LINE
  5
11C
100
AcDbEntity
  8
DETAIL_1
 62
    28
  6
CONTINUOUS
370
    -2
100
AcDbLine
 10
-125.97627644
 20
2555.16233578
 30
0.0
 11
-129.62895035
 21
2555.16233578
 31
0.0
  0
LINE
  5
11D
100
AcDbEntity
  8
DETAIL_1
 62
    28
  6
CONTINUOUS
370
    -2
100
AcDbLine
 10
-120.43315091
 20
2551.22525977
 30
0.0
 11
-124.31627514
 21
2551.22525977
 31
0.0
  0
LINE
  5
11E
100
AcDbEntity
  8
DETAIL_1
 62
    28
  6
CONTINUOUS
370
    -2
100
AcDbLine
 10
-127.47284994
 20
2551.22525977
 30
0.0
 11
-127.93827143
 21
2551.22525977
 31
0.0
  0
LINE
  5
11F
100
AcDbEntity
  8
DETAIL_1
 62
    28
  6
CONTINUOUS
370
    -2
100
AcDbLine
 10
-127.93827143
 20
2551.22525977
 30
0.0
 11
-131.17193947
 21
2551.22525977
 31
0.0
  0
LINE
  5
120
100
AcDbEntity
  8
DETAIL_1
 62
    28
  6
CONTINUOUS
370
    -2
100
AcDbLine
 10
-118.8837037
 20
2547.28818375
 30
0.0
 11
-122.80109263
 21
2547.28818375
 31
0.0
  0
LINE
  5
121
100
AcDbEntity
  8
DETAIL_1
 62
    28
  6
CONTINUOUS
370
    -2
100
AcDbLine
 10
-128.98803245
 20
2547.28818375
 30
0.0
 11
-129.90026641
 21
2547.28818375
 31
0.0
  0
LINE
  5
122
100
AcDbEntity
  8
DETAIL_1
 62
    28
  6
CONTINUOUS
370
    -2
100
AcDbLine
 10
-129.90026641
 20
2547.28818375
 30
0.0
 11
-132.71492859
 21
2547.28818375
 31
0.0
  0
LINE
  5
123
100
AcDbEntity
  8
DETAIL_1
 62
    28
  6
CONTINUOUS
370
    -2
100
AcDbLine
 10
-117.33425649
 20
2543.35110773
 30
0.0
 11
-121.28591011
 21
2543.35110773
 31
0.0
  0
LINE
  5
124
100
AcDbEntity
  8
DETAIL_1
 62
    28
  6
CONTINUOUS
370
    -2
100
AcDbLine
 10
-130.50321496
 20
2543.35110773
 30
0.0
 11
-131.8622614
 21
2543.35110773
 31
0.0
  0
LINE
  5
125
100
AcDbEntity
  8
DETAIL_1
 62
    28
  6
CONTINUOUS
370
    -2
100
AcDbLine
 10
-131.8622614
 20
2543.35110773
 30
0.0
 11
-134.25791771
 21
2543.35110773
 31
0.0
  0
LINE
  5
126
100
AcDbEntity
  8
DETAIL_1
 62
    28
  6
CONTINUOUS
370
    -2
100
AcDbLine
 10
-115.78480928
 20
2539.41403171
 30
0.0
 11
-119.7707276
 21
2539.41403171
 31
0.0
  0
LINE
  5
127
100
AcDbEntity
  8
DETAIL_1
 62
    28
  6
CONTINUOUS
370
    -2
100
AcDbLine
 10
-132.01839748
 20
2539.41403171
 30
0.0
 11
-133.82425639
 21
2539.41403171
 31
0.0
  0
LINE
  5
128
100
AcDbEntity
  8
DETAIL_1
 62
    28
  6
CONTINUOUS
370
    -2
100
AcDbLine
 10
-133.82425639
 20
2539.41403171
 30
0.0
 11
-135.80090683
 21
2539.41403171
 31
0.0
  0
LINE
  5
129
100
AcDbEntity
  8
DETAIL_1
 62
    28
  6
CONTINUOUS
370
    -2
100
AcDbLine
 10
-114.23536207
 20
2535.47695569
 30
0.0
 11
-135.78625138
 21
2535.47695569
 31
0.0
  0
LINE
  5
12A
100
AcDbEntity
  8
DETAIL_1
 62
    28
  6
CONTINUOUS
370
    -2
100
AcDbLine
 10
-135.78625138
 20
2535.47695569
 30
0.0
 11
-137.34389595
 21
2535.47695569
 31
0.0
  0
LINE
  5
12B
100
AcDbEntity
  8
DETAIL_1
 62
    28
  6
CONTINUOUS
370
    -2
100
AcDbLine
 10
-112.68591486
 20
2531.53987967
 30
0.0
 11
-116.70690904
 21
2531.53987967
 31
0.0
  0
LINE
  5
12C
100
AcDbEntity
  8
DETAIL_1
 62
    28
  6
CONTINUOUS
370
    -2
100
AcDbLine
 10
-135.07142716
 20
2531.53987967
 30
0.0
 11
-137.74824636
 21
2531.53987967
 31
0.0
  0
LINE
  5
12D
100
AcDbEntity
  8
DETAIL_1
 62
    28
  6
CONTINUOUS
370
    -2
100
AcDbLine
 10
-137.74824636
 20
2531.53987967
 30
0.0
 11
-138.88688508
 21
2531.53987967
 31
0.0
  0
LINE
  5
12E
100
AcDbEntity
  8
DETAIL_1
 62
    28
  6
CONTINUOUS
370
    -2
100
AcDbLine
 10
-111.13646765
 20
2527.60280366
 30
0.0
 11
-115.18331693
 21
2527.60280366
 31
0.0
  0
LINE
  5
12F
100
AcDbEntity
  8
DETAIL_1
 62
    28
  6
CONTINUOUS
370
    -2
100
AcDbLine
 10
-136.57176072
 20
2527.60280366
 30
0.0
 11
-139.71024135
 21
2527.60280366
 31
0.0
  0
LINE
  5
130
100
AcDbEntity
  8
DETAIL_1
 62
    28
  6
CONTINUOUS
370
    -2
100
AcDbLine
 10
-139.71024135
 20
2527.60280366
 30
0.0
 11
-140.4298742
 21
2527.60280366
 31
0.0
  0
LINE
  5
131
100
AcDbEntity
  8
DETAIL_1
 62
    28
  6
CONTINUOUS
370
    -2
100
AcDbLine
 10
-109.58702044
 20
2523.66572764
 30
0.0
 11
-113.65972483
 21
2523.66572764
 31
0.0
  0
LINE
  5
132
100
AcDbEntity
  8
DETAIL_1
 62
    28
  6
CONTINUOUS
370
    -2
100
AcDbLine
 10
-138.07209428
 20
2523.66572764
 30
0.0
 11
-141.67223634
 21
2523.66572764
 31
0.0
  0
LINE
  5
133
100
AcDbEntity
  8
DETAIL_1
 62
    28
  6
CONTINUOUS
370
    -2
100
AcDbLine
 10
-141.67223634
 20
2523.66572764
 30
0.0
 11
-141.97286332
 21
2523.66572764
 31
0.0
  0
ENDBLK
  5
134
100
AcDbEntity
100
AcDbBlockEnd
  0
ENDSEC
  0
SECTION
  2
ENTITIES
  0
INSERT
  5
135
100
AcDbEntity
  8
DETAIL_1
 62
     0
370
   211
100
AcDbBlockReference
  2
*X1
 10
0.0
 20
0.0
 30
0.0
  0
INSERT
  5
136
100
AcDbEntity
  8
DETAIL_1
 62
     0
370
   211
100
AcDbBlockReference
  2
*X2
 10
0.0
 20
0.0
 30
0.0
  0
INSERT
  5
137
100
AcDbEntity
  8
DETAIL_1
 62
     0
370
   211
100
AcDbBlockReference
  2
*X3
 10
0.0
 20
0.0
 30
0.0
  0
INSERT
  5
138
100
AcDbEntity
  8
DETAIL_1
 62
     0
370
   211
100
AcDbBlockReference
  2
*X4
 10
0.0
 20
0.0
 30
0.0
  0
INSERT
  5
139
100
AcDbEntity
  8
DETAIL_1
 62
     0
370
   211
100
AcDbBlockReference
  2
*X5
 10
0.0
 20
0.0
 30
0.0
  0
INSERT
  5
13A
100
AcDbEntity
  8
DETAIL_1
 62
     0
370
   211
100
AcDbBlockReference
  2
*X6
 10
0.0
 20
0.0
 30
0.0
  0
INSERT
  5
13B
100
AcDbEntity
  8
DETAIL_1
 62
     0
370
   211
100
AcDbBlockReference
  2
*X7
 10
0.0
 20
0.0
 30
0.0
  0
INSERT
  5
13C
100
AcDbEntity
  8
DETAIL_1
 62
     0
370
   211
100
AcDbBlockReference
  2
*X8
 10
0.0
 20
0.0
 30
0.0
  0
LWPOLYLINE
  5
13D
102
{ACAD_REACTORS
330
13E
102
}
100
AcDbEntity
  8
DETAIL_1
 62
    28
  6
CONTINUOUS
370
    -3
100
AcDbPolyline
 90
        4
 70
     1
 43
0.0
 10
-1970.0
 20
2646.56748789
 10
-1.4551915228367E-11
 20
2646.56748789
 10
-1.4551915228367E-11
 20
2710.0
 10
-1970.0
 20
2710.0
  0
HATCH
  5
13E
100
AcDbEntity
  8
DETAIL_1
 62
    28
  6
CONTINUOUS
100
AcDbHatch
 10
0.0
 20
0.0
 30
0.0
210
0.0
220
0.0
230
1.0
  2
SOLID
 70
     1
 71
     1
 91
        1
 92
        7
 72
     0
 73
     1
 93
        4
 10
-1970.0
 20
2646.56748789
 10
-1.4551915228367E-11
 20
2646.56748789
 10
-1.4551915228367E-11
 20
2710.0
 10
-1970.0
 20
2710.0
 97
        1
330
13D
 75
     0
 76
     2
 47
0.775229
 98
        1
 10
0.0
 20
0.0
  0
LINE
  5
13F
100
AcDbEntity
  8
DETAIL_1
 62
    42
370
    -2
100
AcDbLine
 10
-1731.95184824
 20
2520.50684045
 30
0.0
 11
-1732.44930392
 21
2517.72733324
 31
0.0
  0
LWPOLYLINE
  5
140
100
AcDbEntity
  8
DETAIL_1
 62
    42
370
    -3
100
AcDbPolyline
 90
      217
 70
     0
 43
0.0
 10
-1744.28195646
 20
2564.90470237
 10
-1744.30340781
 20
2564.77585655
 10
-1744.36531025
 20
2564.40404434
 10
-1744.46398641
 20
2563.8113536
 10
-1744.59575894
 20
2563.01987216
 10
-1744.75695044
 20
2562.05168789
 10
-1744.94388355
 20
2560.92888865
 10
-1745.1528809
 20
2559.67356228
 10
-1745.38026511
 20
2558.30779664
 10
-1745.62235882
 20
2556.85367958
 10
-1745.87548464
 20
2555.33329896
 10
-1746.13596521
 20
2553.76874264
 10
-1746.40012314
 20
2552.18209846
 10
-1746.66428108
 20
2550.59545428
 10
-1746.92476165
 20
2549.03089795
 10
-1747.17788747
 20
2547.51051734
 10
-1747.41998118
 20
2546.05640028
 10
-1747.64736539
 20
2544.69063464
 10
-1747.85636274
 20
2543.43530827
 10
-1748.04329585
 20
2542.31250903
 10
-1748.20448735
 20
2541.34432476
 10
-1748.33625988
 20
2540.55284332
 10
-1748.43493604
 20
2539.96015257
 10
-1748.49683848
 20
2539.58834036
 10
-1748.51828982
 20
2539.45949455
 10
-1748.51828982
 20
2539.45949455
 10
-1748.51828982
 20
2539.45949455
 10
-1748.51828982
 20
2539.45949455
 10
-1748.51828982
 20
2539.45949455
 10
-1748.51828982
 20
2539.45949455
 10
-1748.51828982
 20
2539.45949455
 10
-1748.51828982
 20
2539.45949455
 10
-1748.51828982
 20
2539.45949455
 10
-1748.51828982
 20
2539.45949455
 10
-1748.51828982
 20
2539.45949455
 10
-1748.51828982
 20
2539.45949455
 10
-1748.51828982
 20
2539.45949455
 10
-1748.51828982
 20
2539.45949455
 10
-1748.51828982
 20
2539.45949455
 10
-1748.51828982
 20
2539.45949455
 10
-1748.51828982
 20
2539.45949455
 10
-1748.51828982
 20
2539.45949455
 10
-1748.51828982
 20
2539.45949455
 10
-1748.51828982
 20
2539.45949455
 10
-1748.51828982
 20
2539.45949455
 10
-1748.51828982
 20
2539.45949455
 10
-1748.51828982
 20
2539.45949455
 10
-1748.51828982
 20
2539.45949455
 10
-1748.51828982
 20
2539.45949455
 10
-1749.04264506
 20
2538.90875502
 10
-1749.55527977
 20
2538.38272374
 10
-1750.05694359
 20
2537.8812876
 10
-1750.54838617
 20
2537.40433344
 10
-1751.03035715
 20
2536.95174816
 10
-1751.50360618
 20
2536.5234186
 10
-1751.96888291
 20
2536.11923164
 10
-1752.42693697
 20
2535.73907415
 10
-1752.87851802
 20
2535.38283299
 10
-1753.32437569
 20
2535.05039504
 10
-1753.76525965
 20
2534.74164716
 10
-1754.20191952
 20
2534.45647622
 10
-1754.63510496
 20
2534.19476908
 10
-1755.0655656
 20
2533.95641262
 10
-1755.49405111
 20
2533.7412937
 10
-1755.92131111
 20
2533.5492992
 10
-1756.34809526
 20
2533.38031597
 10
-1756.7751532
 20
2533.23423089
 10
-1757.20323458
 20
2533.11093083
 10
-1757.63308903
 20
2533.01030265
 10
-1758.06546622
 20
2532.93223322
 10
-1758.50111577
 20
2532.87660941
 10
-1758.94078735
 20
2532.84331809
 10
-1759.38523058
 20
2532.83224612
 10
-1759.38523058
 20
2532.83224612
 10
-1759.38523058
 20
2532.83224612
 10
-1759.38523058
 20
2532.83224612
 10
-1759.38523058
 20
2532.83224612
 10
-1759.38523058
 20
2532.83224612
 10
-1759.38523058
 20
2532.83224612
 10
-1759.38523058
 20
2532.83224612
 10
-1759.38523058
 20
2532.83224612
 10
-1759.38523058
 20
2532.83224612
 10
-1759.38523058
 20
2532.83224612
 10
-1759.38523058
 20
2532.83224612
 10
-1759.38523058
 20
2532.83224612
 10
-1759.38523058
 20
2532.83224612
 10
-1759.38523058
 20
2532.83224612
 10
-1759.38523058
 20
2532.83224612
 10
-1759.38523058
 20
2532.83224612
 10
-1759.38523058
 20
2532.83224612
 10
-1759.38523058
 20
2532.83224612
 10
-1759.38523058
 20
2532.83224612
 10
-1759.38523058
 20
2532.83224612
 10
-1759.38523058
 20
2532.83224612
 10
-1759.38523058
 20
2532.83224612
 10
-1759.38523058
 20
2532.83224612
 10
-1759.38523058
 20
2532.83224612
 10
-1759.89195915
 20
2532.84615154
 10
-1760.38421557
 20
2532.88829038
 10
-1760.86136945
 20
2532.95929655
 10
-1761.32279041
 20
2533.05980392
 10
-1761.76784804
 20
2533.19044638
 10
-1762.19591198
 20
2533.35185783
 10
-1762.60635181
 20
2533.54467216
 10
-1762.99853715
 20
2533.76952324
 10
-1763.37183762
 20
2534.02704498
 10
-1763.72562282
 20
2534.31787126
 10
-1764.05926237
 20
2534.64263597
 10
-1764.37212586
 20
2535.00197299
 10
-1764.66358292
 20
2535.39651623
 10
-1764.93300315
 20
2535.82689956
 10
-1765.17975616
 20
2536.29375688
 10
-1765.40321156
 20
2536.79772207
 10
-1765.60273897
 20
2537.33942902
 10
-1765.77770798
 20
2537.91951163
 10
-1765.92748822
 20
2538.53860378
 10
-1766.05144929
 20
2539.19733936
 10
-1766.1489608
 20
2539.89635226
 10
-1766.21939236
 20
2540.63627636
 10
-1766.26211359
 20
2541.41774557
 10
-1766.27649408
 20
2542.24139376
 10
-1766.27649408
 20
2542.24139376
 10
-1766.27649408
 20
2542.24139376
 10
-1766.27649408
 20
2542.24139376
 10
-1766.27649408
 20
2542.24139376
 10
-1766.27649408
 20
2542.24139376
 10
-1766.27649408
 20
2542.24139376
 10
-1766.27649408
 20
2542.24139376
 10
-1766.27649408
 20
2542.24139376
 10
-1766.27649408
 20
2542.24139376
 10
-1766.27649408
 20
2542.24139376
 10
-1766.27649408
 20
2542.24139376
 10
-1766.27649408
 20
2542.24139376
 10
-1766.27649408
 20
2542.24139376
 10
-1766.27649408
 20
2542.24139376
 10
-1766.27649408
 20
2542.24139376
 10
-1766.27649408
 20
2542.24139376
 10
-1766.27649408
 20
2542.24139376
 10
-1766.27649408
 20
2542.24139376
 10
-1766.27649408
 20
2542.24139376
 10
-1766.27649408
 20
2542.24139376
 10
-1766.27649408
 20
2542.24139376
 10
-1766.27649408
 20
2542.24139376
 10
-1766.27649408
 20
2542.24139376
 10
-1766.27649408
 20
2542.24139376
 10
-1766.23697515
 20
2544.06508167
 10
-1766.12036961
 20
2545.82405517
 10
-1765.92960429
 20
2547.51716836
 10
-1765.66760607
 20
2549.14327534
 10
-1765.33730178
 20
2550.70123021
 10
-1764.94161828
 20
2552.18988707
 10
-1764.48348243
 20
2553.60810003
 10
-1763.96582108
 20
2554.95472318
 10
-1763.39156108
 20
2556.22861063
 10
-1762.76362928
 20
2557.42861648
 10
-1762.08495253
 20
2558.55359483
 10
-1761.3584577
 20
2559.60239978
 10
-1760.58707162
 20
2560.57388543
 10
-1759.77372116
 20
2561.46690589
 10
-1758.92133317
 20
2562.28031525
 10
-1758.03283449
 20
2563.01296761
 10
-1757.11115199
 20
2563.66371708
 10
-1756.15921251
 20
2564.23141776
 10
-1755.17994292
 20
2564.71492375
 10
-1754.17627005
 20
2565.11308916
 10
-1753.15112076
 20
2565.42476807
 10
-1752.10742192
 20
2565.6488146
 10
-1751.04810036
 20
2565.78408284
 10
-1749.97608294
 20
2565.8294269
 10
-1749.74390544
 20
2565.82870949
 10
-1749.5117119
 20
2565.82640285
 10
-1749.27944431
 20
2565.82227531
 10
-1749.04704462
 20
2565.81609521
 10
-1748.81445483
 20
2565.80763089
 10
-1748.58161691
 20
2565.79665069
 10
-1748.34847283
 20
2565.78292297
 10
-1748.11496457
 20
2565.76621605
 10
-1747.88103411
 20
2565.74629829
 10
-1747.64662342
 20
2565.72293801
 10
-1747.41167448
 20
2565.69590357
 10
-1747.17612926
 20
2565.66496331
 10
-1746.93992974
 20
2565.62988557
 10
-1746.7030179
 20
2565.59043869
 10
-1746.46533572
 20
2565.546391
 10
-1746.22682516
 20
2565.49751087
 10
-1745.9874282
 20
2565.44356662
 10
-1745.74708683
 20
2565.38432659
 10
-1745.50574302
 20
2565.31955914
 10
-1745.26333873
 20
2565.24903259
 10
-1745.01981596
 20
2565.1725153
 10
-1744.77511668
 20
2565.08977561
 10
-1744.52918285
 20
2565.00058185
 10
-1744.28195646
 20
2564.90470237
 10
-1744.28195646
 20
2564.90470237
 10
-1744.28195646
 20
2564.90470237
 10
-1744.28195646
 20
2564.90470237
 10
-1744.28195646
 20
2564.90470237
 10
-1744.28195646
 20
2564.90470237
 10
-1744.28195646
 20
2564.90470237
 10
-1744.28195646
 20
2564.90470237
 10
-1744.28195646
 20
2564.90470237
 10
-1744.28195646
 20
2564.90470237
 10
-1744.28195646
 20
2564.90470237
 10
-1744.28195646
 20
2564.90470237
 10
-1744.28195646
 20
2564.90470237
 10
-1744.28195646
 20
2564.90470237
 10
-1744.28195646
 20
2564.90470237
 10
-1744.28195646
 20
2564.90470237
 10
-1744.28195646
 20
2564.90470237
 10
-1744.28195646
 20
2564.90470237
 10
-1744.28195646
 20
2564.90470237
 10
-1744.28195646
 20
2564.90470237
 10
-1744.28195646
 20
2564.90470237
 10
-1744.28195646
 20
2564.90470237
 10
-1744.28195646
 20
2564.90470237
 10
-1744.28195646
 20
2564.90470237
 10
-1744.28195646
 20
2564.90470237
  0
LWPOLYLINE
  5
141
100
AcDbEntity
  8
DETAIL_1
 62
    42
370
    -3
100
AcDbPolyline
 90
      504
 70
     0
 43
0.0
 10
-1732.44930392
 20
2517.72733324
 10
-1733.04447268
 20
2515.11719452
 10
-1733.73430551
 20
2512.67188212
 10
-1734.51575339
 20
2510.38685382
 10
-1735.38576728
 20
2508.25756745
 10
-1736.34129816
 20
2506.27948082
 10
-1737.37929701
 20
2504.44805173
 10
-1738.49671481
 20
2502.75873799
 10
-1739.69050253
 20
2501.2069974
 10
-1740.95761115
 20
2499.78828779
 10
-1742.29499164
 20
2498.49806696
 10
-1743.69959499
 20
2497.33179272
 10
-1745.16837216
 20
2496.28492287
 10
-1746.69827414
 20
2495.35291523
 10
-1748.28625189
 20
2494.5312276
 10
-1749.92925641
 20
2493.8153178
 10
-1751.62423865
 20
2493.20064363
 10
-1753.36814961
 20
2492.6826629
 10
-1755.15794025
 20
2492.25683342
 10
-1756.99056155
 20
2491.91861301
 10
-1758.8629645
 20
2491.66345946
 10
-1760.77210005
 20
2491.48683059
 10
-1762.7149192
 20
2491.38418421
 10
-1764.68837292
 20
2491.35097812
 10
-1764.68837292
 20
2491.35097812
 10
-1764.68837292
 20
2491.35097812
 10
-1764.68837292
 20
2491.35097812
 10
-1764.68837292
 20
2491.35097812
 10
-1764.68837292
 20
2491.35097812
 10
-1764.68837292
 20
2491.35097812
 10
-1764.68837292
 20
2491.35097812
 10
-1764.68837292
 20
2491.35097812
 10
-1764.68837292
 20
2491.35097812
 10
-1764.68837292
 20
2491.35097812
 10
-1764.68837292
 20
2491.35097812
 10
-1764.68837292
 20
2491.35097812
 10
-1764.68837292
 20
2491.35097812
 10
-1764.68837292
 20
2491.35097812
 10
-1764.68837292
 20
2491.35097812
 10
-1764.68837292
 20
2491.35097812
 10
-1764.68837292
 20
2491.35097812
 10
-1764.68837292
 20
2491.35097812
 10
-1764.68837292
 20
2491.35097812
 10
-1764.68837292
 20
2491.35097812
 10
-1764.68837292
 20
2491.35097812
 10
-1764.68837292
 20
2491.35097812
 10
-1764.68837292
 20
2491.35097812
 10
-1764.68837292
 20
2491.35097812
 10
-1766.02381962
 20
2491.36397431
 10
-1767.34613485
 20
2491.40246367
 10
-1768.65462932
 20
2491.46569746
 10
-1769.94861373
 20
2491.55292688
 10
-1771.22739881
 20
2491.66340318
 10
-1772.49029525
 20
2491.79637759
 10
-1773.73661378
 20
2491.95110132
 10
-1774.9656651
 20
2492.12682562
 10
-1776.17675992
 20
2492.32280171
 10
-1777.36920896
 20
2492.53828083
 10
-1778.54232293
 20
2492.77251419
 10
-1779.69541254
 20
2493.02475303
 10
-1780.82778849
 20
2493.29424858
 10
-1781.93876151
 20
2493.58025208
 10
-1783.0276423
 20
2493.88201474
 10
-1784.09374157
 20
2494.1987878
 10
-1785.13637004
 20
2494.52982249
 10
-1786.15483841
 20
2494.87437003
 10
-1787.1484574
 20
2495.23168167
 10
-1788.11653772
 20
2495.60100862
 10
-1789.05839008
 20
2495.98160212
 10
-1789.9733252
 20
2496.37271339
 10
-1790.86065377
 20
2496.77359366
 10
-1791.71968652
 20
2497.18349418
 10
-1791.71968652
 20
2497.18349418
 10
-1791.71968652
 20
2497.18349418
 10
-1791.71968652
 20
2497.18349418
 10
-1791.71968652
 20
2497.18349418
 10
-1791.71968652
 20
2497.18349418
 10
-1791.71968652
 20
2497.18349418
 10
-1791.71968652
 20
2497.18349418
 10
-1791.71968652
 20
2497.18349418
 10
-1791.71968652
 20
2497.18349418
 10
-1791.71968652
 20
2497.18349418
 10
-1791.71968652
 20
2497.18349418
 10
-1791.71968652
 20
2497.18349418
 10
-1791.71968652
 20
2497.18349418
 10
-1791.71968652
 20
2497.18349418
 10
-1791.71968652
 20
2497.18349418
 10
-1791.71968652
 20
2497.18349418
 10
-1791.71968652
 20
2497.18349418
 10
-1791.71968652
 20
2497.18349418
 10
-1791.71968652
 20
2497.18349418
 10
-1791.71968652
 20
2497.18349418
 10
-1791.71968652
 20
2497.18349418
 10
-1791.71968652
 20
2497.18349418
 10
-1791.71968652
 20
2497.18349418
 10
-1791.71968652
 20
2497.18349418
 10
-1791.69485215
 20
2497.25932225
 10
-1791.62318727
 20
2497.47814041
 10
-1791.50894918
 20
2497.82694955
 10
-1791.35639522
 20
2498.29275058
 10
-1791.16978269
 20
2498.8625444
 10
-1790.95336893
 20
2499.5233319
 10
-1790.71141125
 20
2500.262114
 10
-1790.44816697
 20
2501.06589159
 10
-1790.16789341
 20
2501.92166557
 10
-1789.87484788
 20
2502.81643685
 10
-1789.57328772
 20
2503.73720633
 10
-1789.26747024
 20
2504.6709749
 10
-1788.96165276
 20
2505.60474348
 10
-1788.6600926
 20
2506.52551295
 10
-1788.36704708
 20
2507.42028423
 10
-1788.08677351
 20
2508.27605822
 10
-1787.82352923
 20
2509.07983581
 10
-1787.58157155
 20
2509.8186179
 10
-1787.36515779
 20
2510.47940541
 10
-1787.17854526
 20
2511.04919923
 10
-1787.0259913
 20
2511.51500026
 10
-1786.91175321
 20
2511.8638094
 10
-1786.84008833
 20
2512.08262756
 10
-1786.81525396
 20
2512.15845563
 10
-1786.81525396
 20
2512.15845563
 10
-1786.81525396
 20
2512.15845563
 10
-1786.81525396
 20
2512.15845563
 10
-1786.81525396
 20
2512.15845563
 10
-1786.81525396
 20
2512.15845563
 10
-1786.81525396
 20
2512.15845563
 10
-1786.81525396
 20
2512.15845563
 10
-1786.81525396
 20
2512.15845563
 10
-1786.81525396
 20
2512.15845563
 10
-1786.81525396
 20
2512.15845563
 10
-1786.81525396
 20
2512.15845563
 10
-1786.81525396
 20
2512.15845563
 10
-1786.81525396
 20
2512.15845563
 10
-1786.81525396
 20
2512.15845563
 10
-1786.81525396
 20
2512.15845563
 10
-1786.81525396
 20
2512.15845563
 10
-1786.81525396
 20
2512.15845563
 10
-1786.81525396
 20
2512.15845563
 10
-1786.81525396
 20
2512.15845563
 10
-1786.81525396
 20
2512.15845563
 10
-1786.81525396
 20
2512.15845563
 10
-1786.81525396
 20
2512.15845563
 10
-1786.81525396
 20
2512.15845563
 10
-1786.81525396
 20
2512.15845563
 10
-1786.0034571
 20
2511.75056214
 10
-1785.18992345
 20
2511.35547356
 10
-1784.37436831
 20
2510.9735946
 10
-1783.55650693
 20
2510.60532996
 10
-1782.73605459
 20
2510.25108436
 10
-1781.91272657
 20
2509.9112625
 10
-1781.08623815
 20
2509.5862691
 10
-1780.2563046
 20
2509.27650886
 10
-1779.42264119
 20
2508.9823865
 10
-1778.58496319
 20
2508.70430672
 10
-1777.74298589
 20
2508.44267422
 10
-1776.89642456
 20
2508.19789373
 10
-1776.04499447
 20
2507.97036995
 10
-1775.1884109
 20
2507.76050759
 10
-1774.32638912
 20
2507.56871136
 10
-1773.45864441
 20
2507.39538596
 10
-1772.58489203
 20
2507.24093612
 10
-1771.70484728
 20
2507.10576652
 10
-1770.81822542
 20
2506.9902819
 10
-1769.92474172
 20
2506.89488695
 10
-1769.02411146
 20
2506.81998638
 10
-1768.11604992
 20
2506.76598491
 10
-1767.20027237
 20
2506.73328723
 10
-1766.27649408
 20
2506.72229807
 10
-1766.27649408
 20
2506.72229807
 10
-1766.27649408
 20
2506.72229807
 10
-1766.27649408
 20
2506.72229807
 10
-1766.27649408
 20
2506.72229807
 10
-1766.27649408
 20
2506.72229807
 10
-1766.27649408
 20
2506.72229807
 10
-1766.27649408
 20
2506.72229807
 10
-1766.27649408
 20
2506.72229807
 10
-1766.27649408
 20
2506.72229807
 10
-1766.27649408
 20
2506.72229807
 10
-1766.27649408
 20
2506.72229807
 10
-1766.27649408
 20
2506.72229807
 10
-1766.27649408
 20
2506.72229807
 10
-1766.27649408
 20
2506.72229807
 10
-1766.27649408
 20
2506.72229807
 10
-1766.27649408
 20
2506.72229807
 10
-1766.27649408
 20
2506.72229807
 10
-1766.27649408
 20
2506.72229807
 10
-1766.27649408
 20
2506.72229807
 10
-1766.27649408
 20
2506.72229807
 10
-1766.27649408
 20
2506.72229807
 10
-1766.27649408
 20
2506.72229807
 10
-1766.27649408
 20
2506.72229807
 10
-1766.27649408
 20
2506.72229807
 10
-1765.25205488
 20
2506.74441616
 10
-1764.26597851
 20
2506.81084582
 10
-1763.31797863
 20
2506.9217002
 10
-1762.40776892
 20
2507.07709242
 10
-1761.53506304
 20
2507.27713563
 10
-1760.69957467
 20
2507.52194295
 10
-1759.90101748
 20
2507.8116275
 10
-1759.13910514
 20
2508.14630244
 10
-1758.41355133
 20
2508.52608088
 10
-1757.7240697
 20
2508.95107596
 10
-1757.07037394
 20
2509.42140081
 10
-1756.45217771
 20
2509.93716856
 10
-1755.86919468
 20
2510.49849235
 10
-1755.32113854
 20
2511.10548531
 10
-1754.80772294
 20
2511.75826056
 10
-1754.32866156
 20
2512.45693125
 10
-1753.88366806
 20
2513.20161049
 10
-1753.47245613
 20
2513.99241144
 10
-1753.09473944
 20
2514.8294472
 10
-1752.75023164
 20
2515.71283093
 10
-1752.43864642
 20
2516.64267575
 10
-1752.15969745
 20
2517.61909479
 10
-1751.91309839
 20
2518.64220119
 10
-1751.69856292
 20
2519.71210807
 10
-1751.69856292
 20
2519.71210807
 10
-1751.69856292
 20
2519.71210807
 10
-1751.69856292
 20
2519.71210807
 10
-1751.69856292
 20
2519.71210807
 10
-1751.69856292
 20
2519.71210807
 10
-1751.69856292
 20
2519.71210807
 10
-1751.69856292
 20
2519.71210807
 10
-1751.69856292
 20
2519.71210807
 10
-1751.69856292
 20
2519.71210807
 10
-1751.69856292
 20
2519.71210807
 10
-1751.69856292
 20
2519.71210807
 10
-1751.69856292
 20
2519.71210807
 10
-1751.69856292
 20
2519.71210807
 10
-1751.69856292
 20
2519.71210807
 10
-1751.69856292
 20
2519.71210807
 10
-1751.69856292
 20
2519.71210807
 10
-1751.69856292
 20
2519.71210807
 10
-1751.69856292
 20
2519.71210807
 10
-1751.69856292
 20
2519.71210807
 10
-1751.69856292
 20
2519.71210807
 10
-1751.69856292
 20
2519.71210807
 10
-1751.69856292
 20
2519.71210807
 10
-1751.69856292
 20
2519.71210807
 10
-1751.69856292
 20
2519.71210807
 10
-1751.69252144
 20
2519.74163513
 10
-1751.67508745
 20
2519.82684179
 10
-1751.64729663
 20
2519.96266627
 10
-1751.61018468
 20
2520.14404677
 10
-1751.56478726
 20
2520.36592154
 10
-1751.51214007
 20
2520.62322877
 10
-1751.45327878
 20
2520.9109067
 10
-1751.38923907
 20
2521.22389353
 10
-1751.32105664
 20
2521.55712749
 10
-1751.24976716
 20
2521.90554679
 10
-1751.17640632
 20
2522.26408966
 10
-1751.10200979
 20
2522.62769431
 10
-1751.02761326
 20
2522.99129895
 10
-1750.95425242
 20
2523.34984182
 10
-1750.88296294
 20
2523.69826113
 10
-1750.81478051
 20
2524.03149508
 10
-1750.7507408
 20
2524.34448192
 10
-1750.69187951
 20
2524.63215984
 10
-1750.63923232
 20
2524.88946707
 10
-1750.5938349
 20
2525.11134184
 10
-1750.55672295
 20
2525.29272235
 10
-1750.52893213
 20
2525.42854682
 10
-1750.51149814
 20
2525.51375348
 10
-1750.50545666
 20
2525.54328054
 10
-1750.50545666
 20
2525.54328054
 10
-1750.50545666
 20
2525.54328054
 10
-1750.50545666
 20
2525.54328054
 10
-1750.50545666
 20
2525.54328054
 10
-1750.50545666
 20
2525.54328054
 10
-1750.50545666
 20
2525.54328054
 10
-1750.50545666
 20
2525.54328054
 10
-1750.50545666
 20
2525.54328054
 10
-1750.50545666
 20
2525.54328054
 10
-1750.50545666
 20
2525.54328054
 10
-1750.50545666
 20
2525.54328054
 10
-1750.50545666
 20
2525.54328054
 10
-1750.50545666
 20
2525.54328054
 10
-1750.50545666
 20
2525.54328054
 10
-1750.50545666
 20
2525.54328054
 10
-1750.50545666
 20
2525.54328054
 10
-1750.50545666
 20
2525.54328054
 10
-1750.50545666
 20
2525.54328054
 10
-1750.50545666
 20
2525.54328054
 10
-1750.50545666
 20
2525.54328054
 10
-1750.50545666
 20
2525.54328054
 10
-1750.50545666
 20
2525.54328054
 10
-1750.50545666
 20
2525.54328054
 10
-1750.50545666
 20
2525.54328054
 10
-1751.13625481
 20
2524.91879105
 10
-1751.77042506
 20
2524.30535263
 10
-1752.40854034
 20
2523.70434532
 10
-1753.05117361
 20
2523.11714915
 10
-1753.69889782
 20
2522.54514416
 10
-1754.35228592
 20
2521.98971038
 10
-1755.01191086
 20
2521.45222784
 10
-1755.67834559
 20
2520.93407659
 10
-1756.35216305
 20
2520.43663666
 10
-1757.0339362
 20
2519.96128808
 10
-1757.72423799
 20
2519.50941088
 10
-1758.42364136
 20
2519.08238511
 10
-1759.13271926
 20
2518.6815908
 10
-1759.85204465
 20
2518.30840799
 10
-1760.58219047
 20
2517.9642167
 10
-1761.32372967
 20
2517.65039698
 10
-1762.07723521
 20
2517.36832885
 10
-1762.84328003
 20
2517.11939237
 10
-1763.62243707
 20
2516.90496755
 10
-1764.4152793
 20
2516.72643444
 10
-1765.22237966
 20
2516.58517307
 10
-1766.04431109
 20
2516.48256347
 10
-1766.88164655
 20
2516.41998569
 10
-1767.73495899
 20
2516.39881976
 10
-1767.73495899
 20
2516.39881976
 10
-1767.73495899
 20
2516.39881976
 10
-1767.73495899
 20
2516.39881976
 10
-1767.73495899
 20
2516.39881976
 10
-1767.73495899
 20
2516.39881976
 10
-1767.73495899
 20
2516.39881976
 10
-1767.73495899
 20
2516.39881976
 10
-1767.73495899
 20
2516.39881976
 10
-1767.73495899
 20
2516.39881976
 10
-1767.73495899
 20
2516.39881976
 10
-1767.73495899
 20
2516.39881976
 10
-1767.73495899
 20
2516.39881976
 10
-1767.73495899
 20
2516.39881976
 10
-1767.73495899
 20
2516.39881976
 10
-1767.73495899
 20
2516.39881976
 10
-1767.73495899
 20
2516.39881976
 10
-1767.73495899
 20
2516.39881976
 10
-1767.73495899
 20
2516.39881976
 10
-1767.73495899
 20
2516.39881976
 10
-1767.73495899
 20
2516.39881976
 10
-1767.73495899
 20
2516.39881976
 10
-1767.73495899
 20
2516.39881976
 10
-1767.73495899
 20
2516.39881976
 10
-1767.73495899
 20
2516.39881976
 10
-1769.08957566
 20
2516.44014345
 10
-1770.40272961
 20
2516.56377008
 10
-1771.67298233
 20
2516.76918297
 10
-1772.89889533
 20
2517.05586545
 10
-1774.07903011
 20
2517.42330084
 10
-1775.21194818
 20
2517.87097247
 10
-1776.29621105
 20
2518.39836366
 10
-1777.3303802
 20
2519.00495774
 10
-1778.31301715
 20
2519.69023803
 10
-1779.2426834
 20
2520.45368785
 10
-1780.11794046
 20
2521.29479054
 10
-1780.93734982
 20
2522.21302942
 10
-1781.699473
 20
2523.20788781
 10
-1782.40287149
 20
2524.27884904
 10
-1783.04610679
 20
2525.42539643
 10
-1783.62774042
 20
2526.6470133
 10
-1784.14633388
 20
2527.94318299
 10
-1784.60044866
 20
2529.31338882
 10
-1784.98864627
 20
2530.75711411
 10
-1785.30948822
 20
2532.27384219
 10
-1785.56153601
 20
2533.86305638
 10
-1785.74335114
 20
2535.52424001
 10
-1785.85349511
 20
2537.2568764
 10
-1785.89052944
 20
2539.06044888
 10
-1785.89052944
 20
2539.06044888
 10
-1785.89052944
 20
2539.06044888
 10
-1785.89052944
 20
2539.06044888
 10
-1785.89052944
 20
2539.06044888
 10
-1785.89052944
 20
2539.06044888
 10
-1785.89052944
 20
2539.06044888
 10
-1785.89052944
 20
2539.06044888
 10
-1785.89052944
 20
2539.06044888
 10
-1785.89052944
 20
2539.06044888
 10
-1785.89052944
 20
2539.06044888
 10
-1785.89052944
 20
2539.06044888
 10
-1785.89052944
 20
2539.06044888
 10
-1785.89052944
 20
2539.06044888
 10
-1785.89052944
 20
2539.06044888
 10
-1785.89052944
 20
2539.06044888
 10
-1785.89052944
 20
2539.06044888
 10
-1785.89052944
 20
2539.06044888
 10
-1785.89052944
 20
2539.06044888
 10
-1785.89052944
 20
2539.06044888
 10
-1785.89052944
 20
2539.06044888
 10
-1785.89052944
 20
2539.06044888
 10
-1785.89052944
 20
2539.06044888
 10
-1785.89052944
 20
2539.06044888
 10
-1785.89052944
 20
2539.06044888
 10
-1785.79919037
 20
2542.37759226
 10
-1785.52981451
 20
2545.56909863
 10
-1785.08936384
 20
2548.6335884
 10
-1784.48480036
 20
2551.56968197
 10
-1783.72308605
 20
2554.37599974
 10
-1782.8111829
 20
2557.05116211
 10
-1781.75605291
 20
2559.59378948
 10
-1780.56465807
 20
2562.00250226
 10
-1779.24396037
 20
2564.27592084
 10
-1777.80092179
 20
2566.41266563
 10
-1776.24250433
 20
2568.41135704
 10
-1774.57566998
 20
2570.27061546
 10
-1772.80738074
 20
2571.98906129
 10
-1770.94459858
 20
2573.56531495
 10
-1768.99428551
 20
2574.99799682
 10
-1766.96340351
 20
2576.28572732
 10
-1764.85891457
 20
2577.42712683
 10
-1762.68778069
 20
2578.42081578
 10
-1760.45696386
 20
2579.26541455
 10
-1758.17342606
 20
2579.95954356
 10
-1755.84412929
 20
2580.5018232
 10
-1753.47603554
 20
2580.89087387
 10
-1751.07610679
 20
2581.12531597
 10
-1748.65130505
 20
2581.20376992
 10
-1748.65130505
 20
2581.20376992
 10
-1748.65130505
 20
2581.20376992
 10
-1748.65130505
 20
2581.20376992
 10
-1748.65130505
 20
2581.20376992
 10
-1748.65130505
 20
2581.20376992
 10
-1748.65130505
 20
2581.20376992
 10
-1748.65130505
 20
2581.20376992
 10
-1748.65130505
 20
2581.20376992
 10
-1748.65130505
 20
2581.20376992
 10
-1748.65130505
 20
2581.20376992
 10
-1748.65130505
 20
2581.20376992
 10
-1748.65130505
 20
2581.20376992
 10
-1748.65130505
 20
2581.20376992
 10
-1748.65130505
 20
2581.20376992
 10
-1748.65130505
 20
2581.20376992
 10
-1748.65130505
 20
2581.20376992
 10
-1748.65130505
 20
2581.20376992
 10
-1748.65130505
 20
2581.20376992
 10
-1748.65130505
 20
2581.20376992
 10
-1748.65130505
 20
2581.20376992
 10
-1748.65130505
 20
2581.20376992
 10
-1748.65130505
 20
2581.20376992
 10
-1748.65130505
 20
2581.20376992
 10
-1748.65130505
 20
2581.20376992
 10
-1747.57458901
 20
2581.19417479
 10
-1746.49799631
 20
2581.16565805
 10
-1745.42170626
 20
2581.11862265
 10
-1744.3458982
 20
2581.05347155
 10
-1743.27075143
 20
2580.97060772
 10
-1742.19644527
 20
2580.8704341
 10
-1741.12315906
 20
2580.75335368
 10
-1740.0510721
 20
2580.61976939
 10
-1738.98036372
 20
2580.47008421
 10
-1737.91121324
 20
2580.30470108
 10
-1736.84379997
 20
2580.12402298
 10
-1735.77830324
 20
2579.92845287
 10
-1734.71490237
 20
2579.71839369
 10
-1733.65377668
 20
2579.49424842
 10
-1732.59510548
 20
2579.25642
 10
-1731.53906811
 20
2579.00531141
 10
-1730.48584387
 20
2578.7413256
 10
-1729.43561208
 20
2578.46486553
 10
-1728.38855208
 20
2578.17633416
 10
-1727.34484317
 20
2577.87613445
 10
-1726.30466468
 20
2577.56466936
 10
-1725.26819593
 20
2577.24234184
 10
-1724.23561624
 20
2576.90955487
 10
-1723.20710492
 20
2576.5667114
 10
-1723.20710492
 20
2576.5667114
 10
-1723.20710492
 20
2576.5667114
 10
-1723.20710492
 20
2576.5667114
 10
-1723.20710492
 20
2576.5667114
 10
-1723.20710492
 20
2576.5667114
 10
-1723.20710492
 20
2576.5667114
 10
-1723.20710492
 20
2576.5667114
 10
-1723.20710492
 20
2576.5667114
 10
-1723.20710492
 20
2576.5667114
 10
-1723.20710492
 20
2576.5667114
 10
-1723.20710492
 20
2576.5667114
 10
-1723.20710492
 20
2576.5667114
 10
-1723.20710492
 20
2576.5667114
 10
-1723.20710492
 20
2576.5667114
 10
-1723.20710492
 20
2576.5667114
 10
-1723.20710492
 20
2576.5667114
 10
-1723.20710492
 20
2576.5667114
 10
-1723.20710492
 20
2576.5667114
 10
-1723.20710492
 20
2576.5667114
 10
-1723.20710492
 20
2576.5667114
 10
-1723.20710492
 20
2576.5667114
 10
-1723.20710492
 20
2576.5667114
 10
-1723.20710492
 20
2576.5667114
 10
-1723.20710492
 20
2576.5667114
 10
-1723.2513853
 20
2576.28284342
 10
-1723.37916584
 20
2575.46368153
 10
-1723.58285561
 20
2574.15788882
 10
-1723.85486368
 20
2572.41412837
 10
-1724.18759914
 20
2570.28106326
 10
-1724.57347106
 20
2567.80735657
 10
-1725.00488852
 20
2565.04167138
 10
-1725.47426059
 20
2562.03267079
 10
-1725.97399636
 20
2558.82901786
 10
-1726.49650489
 20
2555.47937569
 10
-1727.03419527
 20
2552.03240735
 10
-1727.57947658
 20
2548.53677593
 10
-1728.12475788
 20
2545.04114451
 10
-1728.66244826
 20
2541.59417617
 10
-1729.1849568
 20
2538.24453399
 10
-1729.68469256
 20
2535.04088107
 10
-1730.15406463
 20
2532.03188047
 10
-1730.58548209
 20
2529.26619529
 10
-1730.97135401
 20
2526.7924886
 10
-1731.30408947
 20
2524.65942348
 10
-1731.57609755
 20
2522.91566303
 10
-1731.77978731
 20
2521.60987032
 10
-1731.90756785
 20
2520.79070843
 10
-1731.95184824
 20
2520.50684045
  0
LINE
  5
142
100
AcDbEntity
  8
DETAIL_1
 62
    42
370
    -2
100
AcDbLine
 10
-1698.29026313
 20
2514.14696606
 30
0.0
 11
-1695.7785162
 21
2514.2371133
 31
0.0
  0
LWPOLYLINE
  5
143
100
AcDbEntity
  8
DETAIL_1
 62
    42
370
    -3
100
AcDbPolyline
 90
      169
 70
     0
 43
0.0
 10
-1686.61668859
 20
2539.26752609
 10
-1687.10044684
 20
2538.05750585
 10
-1687.62628815
 20
2536.90764281
 10
-1688.19351828
 20
2535.82265514
 10
-1688.80144297
 20
2534.80726099
 10
-1689.44936798
 20
2533.86617851
 10
-1690.13659907
 20
2533.00412587
 10
-1690.86244198
 20
2532.22582123
 10
-1691.62620249
 20
2531.53598274
 10
-1692.42718633
 20
2530.93932855
 10
-1693.26469926
 20
2530.44057684
 10
-1694.13804705
 20
2530.04444575
 10
-1695.04653543
 20
2529.75565344
 10
-1695.98947018
 20
2529.57891807
 10
-1696.96615703
 20
2529.5189578
 10
-1696.96615703
 20
2529.5189578
 10
-1696.96615703
 20
2529.5189578
 10
-1696.96615703
 20
2529.5189578
 10
-1696.96615703
 20
2529.5189578
 10
-1696.96615703
 20
2529.5189578
 10
-1696.96615703
 20
2529.5189578
 10
-1696.96615703
 20
2529.5189578
 10
-1696.96615703
 20
2529.5189578
 10
-1696.96615703
 20
2529.5189578
 10
-1696.96615703
 20
2529.5189578
 10
-1696.96615703
 20
2529.5189578
 10
-1696.96615703
 20
2529.5189578
 10
-1696.96615703
 20
2529.5189578
 10
-1696.96615703
 20
2529.5189578
 10
-1696.96615703
 20
2529.5189578
 10
-1696.96615703
 20
2529.5189578
 10
-1696.96615703
 20
2529.5189578
 10
-1696.96615703
 20
2529.5189578
 10
-1696.96615703
 20
2529.5189578
 10
-1696.96615703
 20
2529.5189578
 10
-1696.96615703
 20
2529.5189578
 10
-1696.96615703
 20
2529.5189578
 10
-1696.96615703
 20
2529.5189578
 10
-1696.96615703
 20
2529.5189578
 10
-1697.57219007
 20
2529.53773358
 10
-1698.16344451
 20
2529.59463688
 10
-1698.73894153
 20
2529.69053164
 10
-1699.2977023
 20
2529.82628181
 10
-1699.83874801
 20
2530.00275134
 10
-1700.36109982
 20
2530.22080415
 10
-1700.86377891
 20
2530.48130421
 10
-1701.34580646
 20
2530.78511544
 10
-1701.80620364
 20
2531.1331018
 10
-1702.24399162
 20
2531.52612723
 10
-1702.65819159
 20
2531.96505567
 10
-1703.04782471
 20
2532.45075107
 10
-1703.41191216
 20
2532.98407736
 10
-1703.74947512
 20
2533.5658985
 10
-1704.05953476
 20
2534.19707842
 10
-1704.34111225
 20
2534.87848107
 10
-1704.59322878
 20
2535.6109704
 10
-1704.81490551
 20
2536.39541034
 10
-1705.00516363
 20
2537.23266484
 10
-1705.1630243
 20
2538.12359784
 10
-1705.2875087
 20
2539.06907329
 10
-1705.37763801
 20
2540.06995514
 10
-1705.4324334
 20
2541.12710731
 10
-1705.45091605
 20
2542.24139376
 10
-1705.45091605
 20
2542.24139376
 10
-1705.45091605
 20
2542.24139376
 10
-1705.45091605
 20
2542.24139376
 10
-1705.45091605
 20
2542.24139376
 10
-1705.45091605
 20
2542.24139376
 10
-1705.45091605
 20
2542.24139376
 10
-1705.45091605
 20
2542.24139376
 10
-1705.45091605
 20
2542.24139376
 10
-1705.45091605
 20
2542.24139376
 10
-1705.45091605
 20
2542.24139376
 10
-1705.45091605
 20
2542.24139376
 10
-1705.45091605
 20
2542.24139376
 10
-1705.45091605
 20
2542.24139376
 10
-1705.45091605
 20
2542.24139376
 10
-1705.45091605
 20
2542.24139376
 10
-1705.45091605
 20
2542.24139376
 10
-1705.45091605
 20
2542.24139376
 10
-1705.45091605
 20
2542.24139376
 10
-1705.45091605
 20
2542.24139376
 10
-1705.45091605
 20
2542.24139376
 10
-1705.45091605
 20
2542.24139376
 10
-1705.45091605
 20
2542.24139376
 10
-1705.45091605
 20
2542.24139376
 10
-1705.45091605
 20
2542.24139376
 10
-1705.42617153
 20
2543.77786743
 10
-1705.35239947
 20
2545.3026697
 10
-1705.23029205
 20
2546.81102555
 10
-1705.06054149
 20
2548.29815996
 10
-1704.84383999
 20
2549.75929793
 10
-1704.58087975
 20
2551.18966444
 10
-1704.27235299
 20
2552.58448447
 10
-1703.91895189
 20
2553.938983
 10
-1703.52136867
 20
2555.24838503
 10
-1703.08029553
 20
2556.50791553
 10
-1702.59642468
 20
2557.71279949
 10
-1702.07044832
 20
2558.85826189
 10
-1701.50305866
 20
2559.93952773
 10
-1700.89494789
 20
2560.95182198
 10
-1700.24680823
 20
2561.89036963
 10
-1699.55933188
 20
2562.75039566
 10
-1698.83321104
 20
2563.52712506
 10
-1698.06913792
 20
2564.21578281
 10
-1697.26780472
 20
2564.81159389
 10
-1696.42990364
 20
2565.3097833
 10
-1695.5561269
 20
2565.70557602
 10
-1694.64716669
 20
2565.99419703
 10
-1693.70371523
 20
2566.17087131
 10
-1692.7264647
 20
2566.23082385
 10
-1692.10549378
 20
2566.21270295
 10
-1691.50189182
 20
2566.15768966
 10
-1690.91646387
 20
2566.06480805
 10
-1690.35001498
 20
2565.93308223
 10
-1689.80335019
 20
2565.76153628
 10
-1689.27727455
 20
2565.5491943
 10
-1688.7725931
 20
2565.29508037
 10
-1688.29011088
 20
2564.99821859
 10
-1687.83063295
 20
2564.65763305
 10
-1687.39496434
 20
2564.27234783
 10
-1686.98391011
 20
2563.84138703
 10
-1686.59827529
 20
2563.36377474
 10
-1686.23886493
 20
2562.83853505
 10
-1685.90648408
 20
2562.26469205
 10
-1685.60193778
 20
2561.64126983
 10
-1685.32603107
 20
2560.96729249
 10
-1685.079569
 20
2560.2417841
 10
-1684.86335662
 20
2559.46376878
 10
-1684.67819897
 20
2558.63227059
 10
-1684.5249011
 20
2557.74631365
 10
-1684.40426804
 20
2556.80492203
 10
-1684.31710485
 20
2555.80711983
 10
-1684.26421657
 20
2554.75193113
 10
-1684.24640825
 20
2553.63838004
 10
-1684.24640825
 20
2553.63838004
 10
-1684.24640825
 20
2553.63838004
 10
-1684.24640825
 20
2553.63838004
 10
-1684.24640825
 20
2553.63838004
 10
-1684.24640825
 20
2553.63838004
 10
-1684.24640825
 20
2553.63838004
 10
-1684.24640825
 20
2553.63838004
 10
-1684.24640825
 20
2553.63838004
 10
-1684.24640825
 20
2553.63838004
 10
-1684.24640825
 20
2553.63838004
 10
-1684.24640825
 20
2553.63838004
 10
-1684.24640825
 20
2553.63838004
 10
-1684.24640825
 20
2553.63838004
 10
-1684.24640825
 20
2553.63838004
 10
-1684.24640825
 20
2553.63838004
 10
-1684.24640825
 20
2553.63838004
 10
-1684.24640825
 20
2553.63838004
 10
-1684.24640825
 20
2553.63838004
 10
-1684.24640825
 20
2553.63838004
 10
-1684.24640825
 20
2553.63838004
 10
-1684.24640825
 20
2553.63838004
 10
-1684.24640825
 20
2553.63838004
 10
-1684.24640825
 20
2553.63838004
 10
-1684.24640825
 20
2553.63838004
 10
-1684.27115242
 20
2552.08628643
 10
-1684.3449221
 20
2550.54716845
 10
-1684.46702306
 20
2549.02574425
 10
-1684.63676103
 20
2547.526732
 10
-1684.85344178
 20
2546.05484984
 10
-1685.11637106
 20
2544.61481595
 10
-1685.42485463
 20
2543.21134846
 10
-1685.77819824
 20
2541.84916556
 10
-1686.17570764
 20
2540.53298538
 10
-1686.61668859
 20
2539.26752609
  0
LWPOLYLINE
  5
144
100
AcDbEntity
  8
DETAIL_1
 62
    42
370
    -3
100
AcDbPolyline
 90
       96
 70
     0
 43
0.0
 10
-1695.7785162
 20
2514.2371133
 10
-1693.34648941
 20
2514.50368171
 10
-1690.99659762
 20
2514.94086132
 10
-1688.73125565
 20
2515.54284215
 10
-1686.55287836
 20
2516.30381425
 10
-1684.46388058
 20
2517.21796765
 10
-1682.46667717
 20
2518.27949236
 10
-1680.56368296
 20
2519.48257844
 10
-1678.7573128
 20
2520.82141589
 10
-1677.04998152
 20
2522.29019477
 10
-1675.44410398
 20
2523.88310509
 10
-1673.94209502
 20
2525.59433689
 10
-1672.54636947
 20
2527.4180802
 10
-1671.25934219
 20
2529.34852505
 10
-1670.08342801
 20
2531.37986147
 10
-1669.02104178
 20
2533.5062795
 10
-1668.07459834
 20
2535.72196916
 10
-1667.24651253
 20
2538.02112048
 10
-1666.53919921
 20
2540.3979235
 10
-1665.9550732
 20
2542.84656825
 10
-1665.49654936
 20
2545.36124475
 10
-1665.16604252
 20
2547.93614305
 10
-1664.96596753
 20
2550.56545316
 10
-1664.89873924
 20
2553.24336513
 10
-1664.95026313
 20
2555.34993656
 10
-1665.10387785
 20
2557.3947181
 10
-1665.35814797
 20
2559.37523367
 10
-1665.71163805
 20
2561.2890072
 10
-1666.16291265
 20
2563.13356261
 10
-1666.71053634
 20
2564.90642384
 10
-1667.35307368
 20
2566.60511481
 10
-1668.08908924
 20
2568.22715943
 10
-1668.91714759
 20
2569.77008165
 10
-1669.83581329
 20
2571.23140537
 10
-1670.8436509
 20
2572.60865454
 10
-1671.93922499
 20
2573.89935308
 10
-1673.12110013
 20
2575.1010249
 10
-1674.38784087
 20
2576.21119394
 10
-1675.73801179
 20
2577.22738412
 10
-1677.17017745
 20
2578.14711938
 10
-1678.68290242
 20
2578.96792362
 10
-1680.27475125
 20
2579.68732079
 10
-1681.94428852
 20
2580.3028348
 10
-1683.69007879
 20
2580.81198958
 10
-1685.51068662
 20
2581.21230905
 10
-1687.40467659
 20
2581.50131715
 10
-1689.37061325
 20
2581.6765378
 10
-1691.40706116
 20
2581.73549492
 10
-1693.9188081
 20
2581.64533641
 10
-1696.35083488
 20
2581.37869608
 10
-1698.70072668
 20
2580.94132675
 10
-1700.96606865
 20
2580.33898124
 10
-1703.14444594
 20
2579.57741238
 10
-1705.23344371
 20
2578.66237298
 10
-1707.23064713
 20
2577.59961586
 10
-1709.13364134
 20
2576.39489385
 10
-1710.9400115
 20
2575.05395976
 10
-1712.64734277
 20
2573.58256641
 10
-1714.25322031
 20
2571.98646662
 10
-1715.75522928
 20
2570.27141321
 10
-1717.15095482
 20
2568.44315901
 10
-1718.43798211
 20
2566.50745683
 10
-1719.61389629
 20
2564.47005948
 10
-1720.67628252
 20
2562.3367198
 10
-1721.62272596
 20
2560.1131906
 10
-1722.45081176
 20
2557.8052247
 10
-1723.15812509
 20
2555.41857492
 10
-1723.74225109
 20
2552.95899408
 10
-1724.20077494
 20
2550.432235
 10
-1724.53128177
 20
2547.8440505
 10
-1724.73135676
 20
2545.2001934
 10
-1724.79858506
 20
2542.50641652
 10
-1724.74706116
 20
2540.41544008
 10
-1724.59344644
 20
2538.38498152
 10
-1724.33917632
 20
2536.41757101
 10
-1723.98568625
 20
2534.51573872
 10
-1723.53441165
 20
2532.68201479
 10
-1722.98678796
 20
2530.91892939
 10
-1722.34425061
 20
2529.22901269
 10
-1721.60823505
 20
2527.61479485
 10
-1720.7801767
 20
2526.07880603
 10
-1719.86151101
 20
2524.62357639
 10
-1718.85367339
 20
2523.25163609
 10
-1717.7580993
 20
2521.9655153
 10
-1716.57622417
 20
2520.76774417
 10
-1715.30948342
 20
2519.66085287
 10
-1713.9593125
 20
2518.64737156
 10
-1712.52714684
 20
2517.7298304
 10
-1711.01442188
 20
2516.91075956
 10
-1709.42257304
 20
2516.19268919
 10
-1707.75303577
 20
2515.57814947
 10
-1706.0072455
 20
2515.06967054
 10
-1704.18663767
 20
2514.66978257
 10
-1702.29264771
 20
2514.38101573
 10
-1700.32671105
 20
2514.20590017
 10
-1698.29026313
 20
2514.14696606
  0
LINE
  5
145
100
AcDbEntity
  8
DETAIL_1
 62
    42
370
    -2
100
AcDbLine
 10
-1647.75321117
 20
2564.48382339
 30
0.0
 11
-1646.81785646
 21
2564.51171217
 31
0.0
  0
LWPOLYLINE
  5
146
100
AcDbEntity
  8
DETAIL_1
 62
    42
370
    -3
100
AcDbPolyline
 90
      169
 70
     0
 43
0.0
 10
-1641.48388858
 20
2567.77371963
 10
-1642.08874316
 20
2567.41309432
 10
-1642.72007995
 20
2567.09331432
 10
-1643.37637838
 20
2566.81480183
 10
-1644.05611787
 20
2566.57797907
 10
-1644.75777786
 20
2566.38326823
 10
-1645.47983775
 20
2566.23109152
 10
-1646.22077699
 20
2566.12187114
 10
-1646.97907499
 20
2566.05602929
 10
-1647.75321117
 20
2566.03398819
 10
-1647.75321117
 20
2566.03398819
 10
-1647.75321117
 20
2566.03398819
 10
-1647.75321117
 20
2566.03398819
 10
-1647.75321117
 20
2566.03398819
 10
-1647.75321117
 20
2566.03398819
 10
-1647.75321117
 20
2566.03398819
 10
-1647.75321117
 20
2566.03398819
 10
-1647.75321117
 20
2566.03398819
 10
-1647.75321117
 20
2566.03398819
 10
-1647.75321117
 20
2566.03398819
 10
-1647.75321117
 20
2566.03398819
 10
-1647.75321117
 20
2566.03398819
 10
-1647.75321117
 20
2566.03398819
 10
-1647.75321117
 20
2566.03398819
 10
-1647.75321117
 20
2566.03398819
 10
-1647.75321117
 20
2566.03398819
 10
-1647.75321117
 20
2566.03398819
 10
-1647.75321117
 20
2566.03398819
 10
-1647.75321117
 20
2566.03398819
 10
-1647.75321117
 20
2566.03398819
 10
-1647.75321117
 20
2566.03398819
 10
-1647.75321117
 20
2566.03398819
 10
-1647.75321117
 20
2566.03398819
 10
-1647.75321117
 20
2566.03398819
 10
-1648.52110386
 20
2566.05602929
 10
-1649.27422757
 20
2566.12187114
 10
-1650.0109903
 20
2566.23109152
 10
-1650.72980003
 20
2566.38326823
 10
-1651.42906476
 20
2566.57797907
 10
-1652.10719246
 20
2566.81480183
 10
-1652.76259114
 20
2567.09331432
 10
-1653.39366876
 20
2567.41309432
 10
-1653.99883333
 20
2567.77371963
 10
-1654.57649284
 20
2568.17476805
 10
-1655.12505526
 20
2568.61581737
 10
-1655.64292859
 20
2569.0964454
 10
-1656.12852082
 20
2569.61622992
 10
-1656.58023993
 20
2570.17474874
 10
-1656.99649391
 20
2570.77157964
 10
-1657.37569075
 20
2571.40630043
 10
-1657.71623844
 20
2572.0784889
 10
-1658.01654496
 20
2572.78772284
 10
-1658.27501831
 20
2573.53358006
 10
-1658.49006647
 20
2574.31563835
 10
-1658.66009743
 20
2575.13347551
 10
-1658.78351918
 20
2575.98666932
 10
-1658.85873971
 20
2576.8747976
 10
-1658.884167
 20
2577.79743813
 10
-1658.884167
 20
2577.79743813
 10
-1658.884167
 20
2577.79743813
 10
-1658.884167
 20
2577.79743813
 10
-1658.884167
 20
2577.79743813
 10
-1658.884167
 20
2577.79743813
 10
-1658.884167
 20
2577.79743813
 10
-1658.884167
 20
2577.79743813
 10
-1658.884167
 20
2577.79743813
 10
-1658.884167
 20
2577.79743813
 10
-1658.884167
 20
2577.79743813
 10
-1658.884167
 20
2577.79743813
 10
-1658.884167
 20
2577.79743813
 10
-1658.884167
 20
2577.79743813
 10
-1658.884167
 20
2577.79743813
 10
-1658.884167
 20
2577.79743813
 10
-1658.884167
 20
2577.79743813
 10
-1658.884167
 20
2577.79743813
 10
-1658.884167
 20
2577.79743813
 10
-1658.884167
 20
2577.79743813
 10
-1658.884167
 20
2577.79743813
 10
-1658.884167
 20
2577.79743813
 10
-1658.884167
 20
2577.79743813
 10
-1658.884167
 20
2577.79743813
 10
-1658.884167
 20
2577.79743813
 10
-1658.85873971
 20
2578.72684436
 10
-1658.78351918
 20
2579.62117823
 10
-1658.66009743
 20
2580.48004172
 10
-1658.49006647
 20
2581.30303682
 10
-1658.27501831
 20
2582.08976555
 10
-1658.01654496
 20
2582.83982989
 10
-1657.71623844
 20
2583.55283184
 10
-1657.37569075
 20
2584.2283734
 10
-1656.99649391
 20
2584.86605657
 10
-1656.58023993
 20
2585.46548333
 10
-1656.12852082
 20
2586.0262557
 10
-1655.64292859
 20
2586.54797566
 10
-1655.12505526
 20
2587.03024522
 10
-1654.57649284
 20
2587.47266637
 10
-1653.99883333
 20
2587.8748411
 10
-1653.39366876
 20
2588.23637142
 10
-1652.76259114
 20
2588.55685932
 10
-1652.10719246
 20
2588.8359068
 10
-1651.42906476
 20
2589.07311586
 10
-1650.72980003
 20
2589.26808849
 10
-1650.0109903
 20
2589.42042668
 10
-1649.27422757
 20
2589.52973245
 10
-1648.52110386
 20
2589.59560777
 10
-1647.75321117
 20
2589.61765466
 10
-1646.98516764
 20
2589.59560777
 10
-1646.23192574
 20
2589.52973245
 10
-1645.49507515
 20
2589.42042668
 10
-1644.77620554
 20
2589.26808849
 10
-1644.07690661
 20
2589.07311586
 10
-1643.39876801
 20
2588.8359068
 10
-1642.74337945
 20
2588.55685932
 10
-1642.11233059
 20
2588.23637142
 10
-1641.50721112
 20
2587.8748411
 10
-1640.92961071
 20
2587.47266637
 10
-1640.38111904
 20
2587.03024522
 10
-1639.8633258
 20
2586.54797566
 10
-1639.37782066
 20
2586.0262557
 10
-1638.9261933
 20
2585.46548333
 10
-1638.5100334
 20
2584.86605657
 10
-1638.13093064
 20
2584.2283734
 10
-1637.7904747
 20
2583.55283184
 10
-1637.49025526
 20
2582.83982989
 10
-1637.231862
 20
2582.08976555
 10
-1637.01688459
 20
2581.30303682
 10
-1636.84691272
 20
2580.48004172
 10
-1636.72353607
 20
2579.62117823
 10
-1636.64834432
 20
2578.72684436
 10
-1636.62292714
 20
2577.79743813
 10
-1636.62292714
 20
2577.79743813
 10
-1636.62292714
 20
2577.79743813
 10
-1636.62292714
 20
2577.79743813
 10
-1636.62292714
 20
2577.79743813
 10
-1636.62292714
 20
2577.79743813
 10
-1636.62292714
 20
2577.79743813
 10
-1636.62292714
 20
2577.79743813
 10
-1636.62292714
 20
2577.79743813
 10
-1636.62292714
 20
2577.79743813
 10
-1636.62292714
 20
2577.79743813
 10
-1636.62292714
 20
2577.79743813
 10
-1636.62292714
 20
2577.79743813
 10
-1636.62292714
 20
2577.79743813
 10
-1636.62292714
 20
2577.79743813
 10
-1636.62292714
 20
2577.79743813
 10
-1636.62292714
 20
2577.79743813
 10
-1636.62292714
 20
2577.79743813
 10
-1636.62292714
 20
2577.79743813
 10
-1636.62292714
 20
2577.79743813
 10
-1636.62292714
 20
2577.79743813
 10
-1636.62292714
 20
2577.79743813
 10
-1636.62292714
 20
2577.79743813
 10
-1636.62292714
 20
2577.79743813
 10
-1636.62292714
 20
2577.79743813
 10
-1636.64807942
 20
2576.8747976
 10
-1636.72252255
 20
2575.98666932
 10
-1636.84473595
 20
2575.13347551
 10
-1637.01319905
 20
2574.31563835
 10
-1637.22639128
 20
2573.53358006
 10
-1637.48279205
 20
2572.78772284
 10
-1637.78088079
 20
2572.0784889
 10
-1638.11913692
 20
2571.40630043
 10
-1638.49603987
 20
2570.77157964
 10
-1638.91006907
 20
2570.17474874
 10
-1639.35970394
 20
2569.61622992
 10
-1639.8434239
 20
2569.0964454
 10
-1640.35970838
 20
2568.61581737
 10
-1640.90703679
 20
2568.17476805
 10
-1641.48388858
 20
2567.77371963
  0
LWPOLYLINE
  5
147
100
AcDbEntity
  8
DETAIL_1
 62
    42
370
    -3
100
AcDbPolyline
 90
       96
 70
     0
 43
0.0
 10
-1646.81785646
 20
2564.51171217
 10
-1645.90603992
 20
2564.59454811
 10
-1645.01920746
 20
2564.73108559
 10
-1644.15880503
 20
2564.92007899
 10
-1643.32627855
 20
2565.16028269
 10
-1642.52307396
 20
2565.45045107
 10
-1641.75063718
 20
2565.78933852
 10
-1641.01041416
 20
2566.17569941
 10
-1640.30385082
 20
2566.60828814
 10
-1639.63239309
 20
2567.08585907
 10
-1638.99748691
 20
2567.6071666
 10
-1638.4005782
 20
2568.1709651
 10
-1637.8431129
 20
2568.77600896
 10
-1637.32653695
 20
2569.42105256
 10
-1636.85229626
 20
2570.10485027
 10
-1636.42183678
 20
2570.82615649
 10
-1636.03660443
 20
2571.58372559
 10
-1635.69804516
 20
2572.37631196
 10
-1635.40760488
 20
2573.20266998
 10
-1635.16672953
 20
2574.06155402
 10
-1634.97686505
 20
2574.95171848
 10
-1634.83945736
 20
2575.87191772
 10
-1634.75595239
 20
2576.82090615
 10
-1634.72779608
 20
2577.79743813
 10
-1634.75537565
 20
2578.78061163
 10
-1634.8372507
 20
2579.7356851
 10
-1634.97212575
 20
2580.66143727
 10
-1635.15870532
 20
2581.55664686
 10
-1635.39569395
 20
2582.4200926
 10
-1635.68179614
 20
2583.25055323
 10
-1636.01571642
 20
2584.04680747
 10
-1636.39615932
 20
2584.80763405
 10
-1636.82182935
 20
2585.5318117
 10
-1637.29143104
 20
2586.21811914
 10
-1637.80366891
 20
2586.86533511
 10
-1638.35724748
 20
2587.47223833
 10
-1638.95087128
 20
2588.03760754
 10
-1639.58324482
 20
2588.56022145
 10
-1640.25307263
 20
2589.03885881
 10
-1640.95905924
 20
2589.47229833
 10
-1641.69990915
 20
2589.85931875
 10
-1642.4743269
 20
2590.19869879
 10
-1643.28101701
 20
2590.48921719
 10
-1644.11868399
 20
2590.72965267
 10
-1644.98603238
 20
2590.91878396
 10
-1645.88176669
 20
2591.05538979
 10
-1646.80459145
 20
2591.13824888
 10
-1647.75321117
 20
2591.16613998
 10
-1648.688643
 20
2591.13796554
 10
-1649.60052355
 20
2591.0543057
 10
-1650.48740776
 20
2590.91645564
 10
-1651.34785057
 20
2590.72571054
 10
-1652.18040694
 20
2590.4833656
 10
-1652.98363179
 20
2590.19071599
 10
-1653.75608008
 20
2589.84905691
 10
-1654.49630675
 20
2589.45968353
 10
-1655.20286674
 20
2589.02389105
 10
-1655.87431499
 20
2588.54297466
 10
-1656.50920645
 20
2588.01822953
 10
-1657.10609606
 20
2587.45095086
 10
-1657.66353876
 20
2586.84243383
 10
-1658.1800895
 20
2586.19397363
 10
-1658.65430321
 20
2585.50686544
 10
-1659.08473484
 20
2584.78240445
 10
-1659.46993934
 20
2584.02188585
 10
-1659.80847165
 20
2583.22660482
 10
-1660.09888671
 20
2582.39785656
 10
-1660.33973946
 20
2581.53693623
 10
-1660.52958485
 20
2580.64513904
 10
-1660.66697781
 20
2579.72376017
 10
-1660.7504733
 20
2578.7740948
 10
-1660.77862625
 20
2577.79743813
 10
-1660.75105004
 20
2576.81427364
 10
-1660.66918447
 20
2575.85978111
 10
-1660.53432414
 20
2574.93513094
 10
-1660.34776367
 20
2574.0414935
 10
-1660.11079764
 20
2573.18003921
 10
-1659.82472067
 20
2572.35193843
 10
-1659.49082736
 20
2571.55836158
 10
-1659.11041231
 20
2570.80047903
 10
-1658.68477012
 20
2570.07946118
 10
-1658.2151954
 20
2569.39647842
 10
-1657.70298275
 20
2568.75270115
 10
-1657.14942678
 20
2568.14929974
 10
-1656.55582208
 20
2567.5874446
 10
-1655.92346326
 20
2567.06830612
 10
-1655.25364492
 20
2566.59305468
 10
-1654.54766168
 20
2566.16286068
 10
-1653.80680812
 20
2565.77889451
 10
-1653.03237885
 20
2565.44232656
 10
-1652.22566848
 20
2565.15432722
 10
-1651.38797161
 20
2564.91606689
 10
-1650.52058284
 20
2564.72871594
 10
-1649.62479677
 20
2564.59344478
 10
-1648.70190801
 20
2564.5114238
 10
-1647.75321117
 20
2564.48382339
  0
LINE
  5
148
100
AcDbEntity
  8
DETAIL_1
 62
    42
370
    -2
100
AcDbLine
 10
-1645.00087089
 20
2570.73889791
 30
0.0
 11
-1645.01771628
 21
2570.76562534
 31
0.0
  0
LWPOLYLINE
  5
149
100
AcDbEntity
  8
DETAIL_1
 62
    42
370
    -3
100
AcDbPolyline
 90
      217
 70
     0
 43
0.0
 10
-1645.68811622
 20
2580.72343717
 10
-1645.69228582
 20
2580.55487124
 10
-1645.70476217
 20
2580.39346848
 10
-1645.72549657
 20
2580.23922979
 10
-1645.75444033
 20
2580.09215602
 10
-1645.79154476
 20
2579.95224805
 10
-1645.83676115
 20
2579.81950676
 10
-1645.89004083
 20
2579.69393303
 10
-1645.95133509
 20
2579.57552772
 10
-1646.02059524
 20
2579.46429172
 10
-1646.09777258
 20
2579.36022589
 10
-1646.18281844
 20
2579.26333111
 10
-1646.2756841
 20
2579.17360826
 10
-1646.37632088
 20
2579.09105821
 10
-1646.48468009
 20
2579.01568184
 10
-1646.60071303
 20
2578.94748002
 10
-1646.724371
 20
2578.88645362
 10
-1646.85560532
 20
2578.83260353
 10
-1646.99436729
 20
2578.7859306
 10
-1647.14060822
 20
2578.74643573
 10
-1647.29427941
 20
2578.71411979
 10
-1647.45533217
 20
2578.68898364
 10
-1647.62371781
 20
2578.67102816
 10
-1647.79938763
 20
2578.66025423
 10
-1647.98229294
 20
2578.65666273
 10
-1647.98229294
 20
2578.65666273
 10
-1647.98229294
 20
2578.65666273
 10
-1647.98229294
 20
2578.65666273
 10
-1647.98229294
 20
2578.65666273
 10
-1647.98229294
 20
2578.65666273
 10
-1647.98229294
 20
2578.65666273
 10
-1647.98229294
 20
2578.65666273
 10
-1647.98229294
 20
2578.65666273
 10
-1647.98229294
 20
2578.65666273
 10
-1647.98229294
 20
2578.65666273
 10
-1647.98229294
 20
2578.65666273
 10
-1647.98229294
 20
2578.65666273
 10
-1647.98229294
 20
2578.65666273
 10
-1647.98229294
 20
2578.65666273
 10
-1647.98229294
 20
2578.65666273
 10
-1647.98229294
 20
2578.65666273
 10
-1647.98229294
 20
2578.65666273
 10
-1647.98229294
 20
2578.65666273
 10
-1647.98229294
 20
2578.65666273
 10
-1647.98229294
 20
2578.65666273
 10
-1647.98229294
 20
2578.65666273
 10
-1647.98229294
 20
2578.65666273
 10
-1647.98229294
 20
2578.65666273
 10
-1647.98229294
 20
2578.65666273
 10
-1647.98810311
 20
2578.65666273
 10
-1648.00486958
 20
2578.65666273
 10
-1648.03159633
 20
2578.65666273
 10
-1648.06728733
 20
2578.65666273
 10
-1648.11094656
 20
2578.65666273
 10
-1648.16157798
 20
2578.65666273
 10
-1648.21818558
 20
2578.65666273
 10
-1648.27977331
 20
2578.65666273
 10
-1648.34534515
 20
2578.65666273
 10
-1648.41390508
 20
2578.65666273
 10
-1648.48445706
 20
2578.65666273
 10
-1648.55600507
 20
2578.65666273
 10
-1648.62755309
 20
2578.65666273
 10
-1648.69810507
 20
2578.65666273
 10
-1648.766665
 20
2578.65666273
 10
-1648.83223684
 20
2578.65666273
 10
-1648.89382457
 20
2578.65666273
 10
-1648.95043216
 20
2578.65666273
 10
-1649.00106359
 20
2578.65666273
 10
-1649.04472281
 20
2578.65666273
 10
-1649.08041382
 20
2578.65666273
 10
-1649.10714057
 20
2578.65666273
 10
-1649.12390704
 20
2578.65666273
 10
-1649.1297172
 20
2578.65666273
 10
-1649.1297172
 20
2578.65666273
 10
-1649.1297172
 20
2578.65666273
 10
-1649.1297172
 20
2578.65666273
 10
-1649.1297172
 20
2578.65666273
 10
-1649.1297172
 20
2578.65666273
 10
-1649.1297172
 20
2578.65666273
 10
-1649.1297172
 20
2578.65666273
 10
-1649.1297172
 20
2578.65666273
 10
-1649.1297172
 20
2578.65666273
 10
-1649.1297172
 20
2578.65666273
 10
-1649.1297172
 20
2578.65666273
 10
-1649.1297172
 20
2578.65666273
 10
-1649.1297172
 20
2578.65666273
 10
-1649.1297172
 20
2578.65666273
 10
-1649.1297172
 20
2578.65666273
 10
-1649.1297172
 20
2578.65666273
 10
-1649.1297172
 20
2578.65666273
 10
-1649.1297172
 20
2578.65666273
 10
-1649.1297172
 20
2578.65666273
 10
-1649.1297172
 20
2578.65666273
 10
-1649.1297172
 20
2578.65666273
 10
-1649.1297172
 20
2578.65666273
 10
-1649.1297172
 20
2578.65666273
 10
-1649.1297172
 20
2578.65666273
 10
-1649.1297172
 20
2578.67728915
 10
-1649.1297172
 20
2578.73681111
 10
-1649.1297172
 20
2578.83169264
 10
-1649.1297172
 20
2578.95839779
 10
-1649.1297172
 20
2579.1133906
 10
-1649.1297172
 20
2579.29313512
 10
-1649.1297172
 20
2579.49409539
 10
-1649.1297172
 20
2579.71273544
 10
-1649.1297172
 20
2579.94551932
 10
-1649.1297172
 20
2580.18891108
 10
-1649.1297172
 20
2580.43937475
 10
-1649.1297172
 20
2580.69337438
 10
-1649.1297172
 20
2580.94737401
 10
-1649.1297172
 20
2581.19783768
 10
-1649.1297172
 20
2581.44122944
 10
-1649.1297172
 20
2581.67401332
 10
-1649.1297172
 20
2581.89265338
 10
-1649.1297172
 20
2582.09361364
 10
-1649.1297172
 20
2582.27335816
 10
-1649.1297172
 20
2582.42835097
 10
-1649.1297172
 20
2582.55505612
 10
-1649.1297172
 20
2582.64993766
 10
-1649.1297172
 20
2582.70945961
 10
-1649.1297172
 20
2582.73008603
 10
-1649.1297172
 20
2582.73008603
 10
-1649.1297172
 20
2582.73008603
 10
-1649.1297172
 20
2582.73008603
 10
-1649.1297172
 20
2582.73008603
 10
-1649.1297172
 20
2582.73008603
 10
-1649.1297172
 20
2582.73008603
 10
-1649.1297172
 20
2582.73008603
 10
-1649.1297172
 20
2582.73008603
 10
-1649.1297172
 20
2582.73008603
 10
-1649.1297172
 20
2582.73008603
 10
-1649.1297172
 20
2582.73008603
 10
-1649.1297172
 20
2582.73008603
 10
-1649.1297172
 20
2582.73008603
 10
-1649.1297172
 20
2582.73008603
 10
-1649.1297172
 20
2582.73008603
 10
-1649.1297172
 20
2582.73008603
 10
-1649.1297172
 20
2582.73008603
 10
-1649.1297172
 20
2582.73008603
 10
-1649.1297172
 20
2582.73008603
 10
-1649.1297172
 20
2582.73008603
 10
-1649.1297172
 20
2582.73008603
 10
-1649.1297172
 20
2582.73008603
 10
-1649.1297172
 20
2582.73008603
 10
-1649.1297172
 20
2582.73008603
 10
-1649.1236315
 20
2582.73008603
 10
-1649.1060699
 20
2582.73008603
 10
-1649.07807566
 20
2582.73008603
 10
-1649.04069205
 20
2582.73008603
 10
-1648.99496233
 20
2582.73008603
 10
-1648.94192977
 20
2582.73008603
 10
-1648.88263763
 20
2582.73008603
 10
-1648.81812916
 20
2582.73008603
 10
-1648.74944765
 20
2582.73008603
 10
-1648.67763634
 20
2582.73008603
 10
-1648.60373851
 20
2582.73008603
 10
-1648.52879741
 20
2582.73008603
 10
-1648.45385632
 20
2582.73008603
 10
-1648.37995848
 20
2582.73008603
 10
-1648.30814718
 20
2582.73008603
 10
-1648.23946566
 20
2582.73008603
 10
-1648.1749572
 20
2582.73008603
 10
-1648.11566506
 20
2582.73008603
 10
-1648.0626325
 20
2582.73008603
 10
-1648.01690278
 20
2582.73008603
 10
-1647.97951917
 20
2582.73008603
 10
-1647.95152493
 20
2582.73008603
 10
-1647.93396333
 20
2582.73008603
 10
-1647.92787762
 20
2582.73008603
 10
-1647.75149475
 20
2582.72622392
 10
-1647.58180416
 20
2582.71470339
 10
-1647.41887816
 20
2582.69562313
 10
-1647.26278906
 20
2582.66908184
 10
-1647.11360918
 20
2582.63517823
 10
-1646.97141083
 20
2582.594011
 10
-1646.83626631
 20
2582.54567883
 10
-1646.70824794
 20
2582.49028043
 10
-1646.58742804
 20
2582.42791451
 10
-1646.4738789
 20
2582.35867975
 10
-1646.36767285
 20
2582.28267485
 10
-1646.26888219
 20
2582.19999853
 10
-1646.17757923
 20
2582.11074947
 10
-1646.09383629
 20
2582.01502637
 10
-1646.01772568
 20
2581.91292794
 10
-1645.9493197
 20
2581.80455286
 10
-1645.88869068
 20
2581.68999985
 10
-1645.83591091
 20
2581.5693676
 10
-1645.79105272
 20
2581.4427548
 10
-1645.75418841
 20
2581.31026017
 10
-1645.72539029
 20
2581.17198238
 10
-1645.70473068
 20
2581.02802016
 10
-1645.69228189
 20
2580.87847219
 10
-1645.68811622
 20
2580.72343717
 10
-1645.68811622
 20
2580.72343717
 10
-1645.68811622
 20
2580.72343717
 10
-1645.68811622
 20
2580.72343717
 10
-1645.68811622
 20
2580.72343717
 10
-1645.68811622
 20
2580.72343717
 10
-1645.68811622
 20
2580.72343717
 10
-1645.68811622
 20
2580.72343717
 10
-1645.68811622
 20
2580.72343717
 10
-1645.68811622
 20
2580.72343717
 10
-1645.68811622
 20
2580.72343717
 10
-1645.68811622
 20
2580.72343717
 10
-1645.68811622
 20
2580.72343717
 10
-1645.68811622
 20
2580.72343717
 10
-1645.68811622
 20
2580.72343717
 10
-1645.68811622
 20
2580.72343717
 10
-1645.68811622
 20
2580.72343717
 10
-1645.68811622
 20
2580.72343717
 10
-1645.68811622
 20
2580.72343717
 10
-1645.68811622
 20
2580.72343717
 10
-1645.68811622
 20
2580.72343717
 10
-1645.68811622
 20
2580.72343717
 10
-1645.68811622
 20
2580.72343717
 10
-1645.68811622
 20
2580.72343717
 10
-1645.68811622
 20
2580.72343717
  0
LWPOLYLINE
  5
14A
100
AcDbEntity
  8
DETAIL_1
 62
    42
370
    -3
100
AcDbPolyline
 90
      456
 70
     0
 43
0.0
 10
-1645.01771628
 20
2570.76562534
 10
-1645.06632727
 20
2570.84275307
 10
-1645.14381607
 20
2570.96569926
 10
-1645.24729491
 20
2571.12988205
 10
-1645.37387599
 20
2571.33071961
 10
-1645.52067155
 20
2571.56363009
 10
-1645.68479379
 20
2571.82403164
 10
-1645.86335494
 20
2572.10734241
 10
-1646.05346722
 20
2572.40898057
 10
-1646.25224284
 20
2572.72436427
 10
-1646.45679403
 20
2573.04891165
 10
-1646.66423299
 20
2573.37804088
 10
-1646.87167196
 20
2573.70717011
 10
-1647.07622314
 20
2574.0317175
 10
-1647.27499876
 20
2574.34710119
 10
-1647.46511104
 20
2574.64873935
 10
-1647.64367219
 20
2574.93205013
 10
-1647.80779444
 20
2575.19245168
 10
-1647.95458999
 20
2575.42536216
 10
-1648.08117108
 20
2575.62619971
 10
-1648.18464991
 20
2575.79038251
 10
-1648.26213871
 20
2575.9133287
 10
-1648.3107497
 20
2575.99045643
 10
-1648.32759509
 20
2576.01718386
 10
-1648.32759509
 20
2576.01718386
 10
-1648.32759509
 20
2576.01718386
 10
-1648.32759509
 20
2576.01718386
 10
-1648.32759509
 20
2576.01718386
 10
-1648.32759509
 20
2576.01718386
 10
-1648.32759509
 20
2576.01718386
 10
-1648.32759509
 20
2576.01718386
 10
-1648.32759509
 20
2576.01718386
 10
-1648.32759509
 20
2576.01718386
 10
-1648.32759509
 20
2576.01718386
 10
-1648.32759509
 20
2576.01718386
 10
-1648.32759509
 20
2576.01718386
 10
-1648.32759509
 20
2576.01718386
 10
-1648.32759509
 20
2576.01718386
 10
-1648.32759509
 20
2576.01718386
 10
-1648.32759509
 20
2576.01718386
 10
-1648.32759509
 20
2576.01718386
 10
-1648.32759509
 20
2576.01718386
 10
-1648.32759509
 20
2576.01718386
 10
-1648.32759509
 20
2576.01718386
 10
-1648.32759509
 20
2576.01718386
 10
-1648.32759509
 20
2576.01718386
 10
-1648.32759509
 20
2576.01718386
 10
-1648.32759509
 20
2576.01718386
 10
-1648.33165676
 20
2576.01718386
 10
-1648.34337759
 20
2576.01718386
 10
-1648.36206128
 20
2576.01718386
 10
-1648.38701155
 20
2576.01718386
 10
-1648.41753211
 20
2576.01718386
 10
-1648.45292667
 20
2576.01718386
 10
-1648.49249896
 20
2576.01718386
 10
-1648.53555268
 20
2576.01718386
 10
-1648.58139154
 20
2576.01718386
 10
-1648.62931927
 20
2576.01718386
 10
-1648.67863956
 20
2576.01718386
 10
-1648.72865615
 20
2576.01718386
 10
-1648.77867273
 20
2576.01718386
 10
-1648.82799303
 20
2576.01718386
 10
-1648.87592075
 20
2576.01718386
 10
-1648.92175962
 20
2576.01718386
 10
-1648.96481334
 20
2576.01718386
 10
-1649.00438562
 20
2576.01718386
 10
-1649.03978019
 20
2576.01718386
 10
-1649.07030075
 20
2576.01718386
 10
-1649.09525102
 20
2576.01718386
 10
-1649.11393471
 20
2576.01718386
 10
-1649.12565553
 20
2576.01718386
 10
-1649.1297172
 20
2576.01718386
 10
-1649.1297172
 20
2576.01718386
 10
-1649.1297172
 20
2576.01718386
 10
-1649.1297172
 20
2576.01718386
 10
-1649.1297172
 20
2576.01718386
 10
-1649.1297172
 20
2576.01718386
 10
-1649.1297172
 20
2576.01718386
 10
-1649.1297172
 20
2576.01718386
 10
-1649.1297172
 20
2576.01718386
 10
-1649.1297172
 20
2576.01718386
 10
-1649.1297172
 20
2576.01718386
 10
-1649.1297172
 20
2576.01718386
 10
-1649.1297172
 20
2576.01718386
 10
-1649.1297172
 20
2576.01718386
 10
-1649.1297172
 20
2576.01718386
 10
-1649.1297172
 20
2576.01718386
 10
-1649.1297172
 20
2576.01718386
 10
-1649.1297172
 20
2576.01718386
 10
-1649.1297172
 20
2576.01718386
 10
-1649.1297172
 20
2576.01718386
 10
-1649.1297172
 20
2576.01718386
 10
-1649.1297172
 20
2576.01718386
 10
-1649.1297172
 20
2576.01718386
 10
-1649.1297172
 20
2576.01718386
 10
-1649.1297172
 20
2576.01718386
 10
-1649.1297172
 20
2575.99132897
 10
-1649.1297172
 20
2575.91671916
 10
-1649.1297172
 20
2575.79778668
 10
-1649.1297172
 20
2575.6389638
 10
-1649.1297172
 20
2575.4446828
 10
-1649.1297172
 20
2575.21937593
 10
-1649.1297172
 20
2574.96747546
 10
-1649.1297172
 20
2574.69341366
 10
-1649.1297172
 20
2574.40162279
 10
-1649.1297172
 20
2574.09653513
 10
-1649.1297172
 20
2573.78258293
 10
-1649.1297172
 20
2573.46419847
 10
-1649.1297172
 20
2573.14581401
 10
-1649.1297172
 20
2572.83186181
 10
-1649.1297172
 20
2572.52677415
 10
-1649.1297172
 20
2572.23498329
 10
-1649.1297172
 20
2571.96092149
 10
-1649.1297172
 20
2571.70902102
 10
-1649.1297172
 20
2571.48371415
 10
-1649.1297172
 20
2571.28943314
 10
-1649.1297172
 20
2571.13061027
 10
-1649.1297172
 20
2571.01167779
 10
-1649.1297172
 20
2570.93706797
 10
-1649.1297172
 20
2570.91121308
 10
-1649.1297172
 20
2570.91121308
 10
-1649.1297172
 20
2570.91121308
 10
-1649.1297172
 20
2570.91121308
 10
-1649.1297172
 20
2570.91121308
 10
-1649.1297172
 20
2570.91121308
 10
-1649.1297172
 20
2570.91121308
 10
-1649.1297172
 20
2570.91121308
 10
-1649.1297172
 20
2570.91121308
 10
-1649.1297172
 20
2570.91121308
 10
-1649.1297172
 20
2570.91121308
 10
-1649.1297172
 20
2570.91121308
 10
-1649.1297172
 20
2570.91121308
 10
-1649.1297172
 20
2570.91121308
 10
-1649.1297172
 20
2570.91121308
 10
-1649.1297172
 20
2570.91121308
 10
-1649.1297172
 20
2570.91121308
 10
-1649.1297172
 20
2570.91121308
 10
-1649.1297172
 20
2570.91121308
 10
-1649.1297172
 20
2570.91121308
 10
-1649.1297172
 20
2570.91121308
 10
-1649.1297172
 20
2570.91121308
 10
-1649.1297172
 20
2570.91121308
 10
-1649.1297172
 20
2570.91121308
 10
-1649.1297172
 20
2570.91121308
 10
-1649.14977383
 20
2570.91121308
 10
-1649.20765153
 20
2570.91121308
 10
-1649.29991203
 20
2570.91121308
 10
-1649.42311704
 20
2570.91121308
 10
-1649.57382828
 20
2570.91121308
 10
-1649.74860748
 20
2570.91121308
 10
-1649.94401636
 20
2570.91121308
 10
-1650.15661663
 20
2570.91121308
 10
-1650.38297002
 20
2570.91121308
 10
-1650.61963825
 20
2570.91121308
 10
-1650.86318303
 20
2570.91121308
 10
-1651.1101661
 20
2570.91121308
 10
-1651.35714917
 20
2570.91121308
 10
-1651.60069395
 20
2570.91121308
 10
-1651.83736218
 20
2570.91121308
 10
-1652.06371557
 20
2570.91121308
 10
-1652.27631584
 20
2570.91121308
 10
-1652.47172472
 20
2570.91121308
 10
-1652.64650392
 20
2570.91121308
 10
-1652.79721516
 20
2570.91121308
 10
-1652.92042017
 20
2570.91121308
 10
-1653.01268067
 20
2570.91121308
 10
-1653.07055837
 20
2570.91121308
 10
-1653.090615
 20
2570.91121308
 10
-1653.090615
 20
2570.91121308
 10
-1653.090615
 20
2570.91121308
 10
-1653.090615
 20
2570.91121308
 10
-1653.090615
 20
2570.91121308
 10
-1653.090615
 20
2570.91121308
 10
-1653.090615
 20
2570.91121308
 10
-1653.090615
 20
2570.91121308
 10
-1653.090615
 20
2570.91121308
 10
-1653.090615
 20
2570.91121308
 10
-1653.090615
 20
2570.91121308
 10
-1653.090615
 20
2570.91121308
 10
-1653.090615
 20
2570.91121308
 10
-1653.090615
 20
2570.91121308
 10
-1653.090615
 20
2570.91121308
 10
-1653.090615
 20
2570.91121308
 10
-1653.090615
 20
2570.91121308
 10
-1653.090615
 20
2570.91121308
 10
-1653.090615
 20
2570.91121308
 10
-1653.090615
 20
2570.91121308
 10
-1653.090615
 20
2570.91121308
 10
-1653.090615
 20
2570.91121308
 10
-1653.090615
 20
2570.91121308
 10
-1653.090615
 20
2570.91121308
 10
-1653.090615
 20
2570.91121308
 10
-1653.090615
 20
2570.98559712
 10
-1653.090615
 20
2571.2002482
 10
-1653.090615
 20
2571.54241478
 10
-1653.090615
 20
2571.9993453
 10
-1653.090615
 20
2572.55828821
 10
-1653.090615
 20
2573.20649197
 10
-1653.090615
 20
2573.93120503
 10
-1653.090615
 20
2574.71967583
 10
-1653.090615
 20
2575.55915283
 10
-1653.090615
 20
2576.43688448
 10
-1653.090615
 20
2577.34011923
 10
-1653.090615
 20
2578.25610552
 10
-1653.090615
 20
2579.17209182
 10
-1653.090615
 20
2580.07532657
 10
-1653.090615
 20
2580.95305821
 10
-1653.090615
 20
2581.79253521
 10
-1653.090615
 20
2582.58100602
 10
-1653.090615
 20
2583.30571907
 10
-1653.090615
 20
2583.95392283
 10
-1653.090615
 20
2584.51286575
 10
-1653.090615
 20
2584.96979627
 10
-1653.090615
 20
2585.31196284
 10
-1653.090615
 20
2585.52661392
 10
-1653.090615
 20
2585.60099796
 10
-1653.090615
 20
2585.60099796
 10
-1653.090615
 20
2585.60099796
 10
-1653.090615
 20
2585.60099796
 10
-1653.090615
 20
2585.60099796
 10
-1653.090615
 20
2585.60099796
 10
-1653.090615
 20
2585.60099796
 10
-1653.090615
 20
2585.60099796
 10
-1653.090615
 20
2585.60099796
 10
-1653.090615
 20
2585.60099796
 10
-1653.090615
 20
2585.60099796
 10
-1653.090615
 20
2585.60099796
 10
-1653.090615
 20
2585.60099796
 10
-1653.090615
 20
2585.60099796
 10
-1653.090615
 20
2585.60099796
 10
-1653.090615
 20
2585.60099796
 10
-1653.090615
 20
2585.60099796
 10
-1653.090615
 20
2585.60099796
 10
-1653.090615
 20
2585.60099796
 10
-1653.090615
 20
2585.60099796
 10
-1653.090615
 20
2585.60099796
 10
-1653.090615
 20
2585.60099796
 10
-1653.090615
 20
2585.60099796
 10
-1653.090615
 20
2585.60099796
 10
-1653.090615
 20
2585.60099796
 10
-1653.06214928
 20
2585.60099796
 10
-1652.98000535
 20
2585.60099796
 10
-1652.84906304
 20
2585.60099796
 10
-1652.6742022
 20
2585.60099796
 10
-1652.46030266
 20
2585.60099796
 10
-1652.21224426
 20
2585.60099796
 10
-1651.93490683
 20
2585.60099796
 10
-1651.63317022
 20
2585.60099796
 10
-1651.31191425
 20
2585.60099796
 10
-1650.97601878
 20
2585.60099796
 10
-1650.63036363
 20
2585.60099796
 10
-1650.27982864
 20
2585.60099796
 10
-1649.92929365
 20
2585.60099796
 10
-1649.5836385
 20
2585.60099796
 10
-1649.24774302
 20
2585.60099796
 10
-1648.92648706
 20
2585.60099796
 10
-1648.62475044
 20
2585.60099796
 10
-1648.34741302
 20
2585.60099796
 10
-1648.09935461
 20
2585.60099796
 10
-1647.88545507
 20
2585.60099796
 10
-1647.71059423
 20
2585.60099796
 10
-1647.57965193
 20
2585.60099796
 10
-1647.497508
 20
2585.60099796
 10
-1647.46904228
 20
2585.60099796
 10
-1647.46904228
 20
2585.60099796
 10
-1647.46904228
 20
2585.60099796
 10
-1647.46904228
 20
2585.60099796
 10
-1647.46904228
 20
2585.60099796
 10
-1647.46904228
 20
2585.60099796
 10
-1647.46904228
 20
2585.60099796
 10
-1647.46904228
 20
2585.60099796
 10
-1647.46904228
 20
2585.60099796
 10
-1647.46904228
 20
2585.60099796
 10
-1647.46904228
 20
2585.60099796
 10
-1647.46904228
 20
2585.60099796
 10
-1647.46904228
 20
2585.60099796
 10
-1647.46904228
 20
2585.60099796
 10
-1647.46904228
 20
2585.60099796
 10
-1647.46904228
 20
2585.60099796
 10
-1647.46904228
 20
2585.60099796
 10
-1647.46904228
 20
2585.60099796
 10
-1647.46904228
 20
2585.60099796
 10
-1647.46904228
 20
2585.60099796
 10
-1647.46904228
 20
2585.60099796
 10
-1647.46904228
 20
2585.60099796
 10
-1647.46904228
 20
2585.60099796
 10
-1647.46904228
 20
2585.60099796
 10
-1647.46904228
 20
2585.60099796
 10
-1647.02499015
 20
2585.59264184
 10
-1646.59674762
 20
2585.56764074
 10
-1646.18458909
 20
2585.52609555
 10
-1645.78878891
 20
2585.46810714
 10
-1645.40962147
 20
2585.39377641
 10
-1645.04736114
 20
2585.30320425
 10
-1644.70228229
 20
2585.19649153
 10
-1644.3746593
 20
2585.07373914
 10
-1644.06476654
 20
2584.93504798
 10
-1643.77287839
 20
2584.78051892
 10
-1643.49926921
 20
2584.61025285
 10
-1643.24421339
 20
2584.42435066
 10
-1643.0079853
 20
2584.22291323
 10
-1642.79085931
 20
2584.00604145
 10
-1642.5931098
 20
2583.7738362
 10
-1642.41501114
 20
2583.52639837
 10
-1642.2568377
 20
2583.26382884
 10
-1642.11886387
 20
2582.98622851
 10
-1642.001364
 20
2582.69369826
 10
-1641.90461249
 20
2582.38633896
 10
-1641.8288837
 20
2582.06425152
 10
-1641.774452
 20
2581.72753681
 10
-1641.74159178
 20
2581.37629571
 10
-1641.7305774
 20
2581.01062913
 10
-1641.7305774
 20
2581.01062913
 10
-1641.7305774
 20
2581.01062913
 10
-1641.7305774
 20
2581.01062913
 10
-1641.7305774
 20
2581.01062913
 10
-1641.7305774
 20
2581.01062913
 10
-1641.7305774
 20
2581.01062913
 10
-1641.7305774
 20
2581.01062913
 10
-1641.7305774
 20
2581.01062913
 10
-1641.7305774
 20
2581.01062913
 10
-1641.7305774
 20
2581.01062913
 10
-1641.7305774
 20
2581.01062913
 10
-1641.7305774
 20
2581.01062913
 10
-1641.7305774
 20
2581.01062913
 10
-1641.7305774
 20
2581.01062913
 10
-1641.7305774
 20
2581.01062913
 10
-1641.7305774
 20
2581.01062913
 10
-1641.7305774
 20
2581.01062913
 10
-1641.7305774
 20
2581.01062913
 10
-1641.7305774
 20
2581.01062913
 10
-1641.7305774
 20
2581.01062913
 10
-1641.7305774
 20
2581.01062913
 10
-1641.7305774
 20
2581.01062913
 10
-1641.7305774
 20
2581.01062913
 10
-1641.7305774
 20
2581.01062913
 10
-1641.73649214
 20
2580.74936458
 10
-1641.75400466
 20
2580.49642267
 10
-1641.7827674
 20
2580.2517531
 10
-1641.82243279
 20
2580.01530558
 10
-1641.87265329
 20
2579.78702979
 10
-1641.93308132
 20
2579.56687546
 10
-1642.00336933
 20
2579.35479227
 10
-1642.08316975
 20
2579.15072994
 10
-1642.17213504
 20
2578.95463817
 10
-1642.26991762
 20
2578.76646665
 10
-1642.37616993
 20
2578.5861651
 10
-1642.49054443
 20
2578.41368322
 10
-1642.61269354
 20
2578.2489707
 10
-1642.74226971
 20
2578.09197725
 10
-1642.87892537
 20
2577.94265258
 10
-1643.02231297
 20
2577.80094638
 10
-1643.17208495
 20
2577.66680837
 10
-1643.32789374
 20
2577.54018823
 10
-1643.48939179
 20
2577.42103569
 10
-1643.65623153
 20
2577.30930043
 10
-1643.82806541
 20
2577.20493216
 10
-1644.00454587
 20
2577.10788059
 10
-1644.18532534
 20
2577.01809542
 10
-1644.37005627
 20
2576.93552634
 10
-1644.37005627
 20
2576.93552634
 10
-1644.37005627
 20
2576.93552634
 10
-1644.37005627
 20
2576.93552634
 10
-1644.37005627
 20
2576.93552634
 10
-1644.37005627
 20
2576.93552634
 10
-1644.37005627
 20
2576.93552634
 10
-1644.37005627
 20
2576.93552634
 10
-1644.37005627
 20
2576.93552634
 10
-1644.37005627
 20
2576.93552634
 10
-1644.37005627
 20
2576.93552634
 10
-1644.37005627
 20
2576.93552634
 10
-1644.37005627
 20
2576.93552634
 10
-1644.37005627
 20
2576.93552634
 10
-1644.37005627
 20
2576.93552634
 10
-1644.37005627
 20
2576.93552634
 10
-1644.37005627
 20
2576.93552634
 10
-1644.37005627
 20
2576.93552634
 10
-1644.37005627
 20
2576.93552634
 10
-1644.37005627
 20
2576.93552634
 10
-1644.37005627
 20
2576.93552634
 10
-1644.37005627
 20
2576.93552634
 10
-1644.37005627
 20
2576.93552634
 10
-1644.37005627
 20
2576.93552634
 10
-1644.37005627
 20
2576.93552634
 10
-1644.35145218
 20
2576.90763212
 10
-1644.2977661
 20
2576.82713735
 10
-1644.21218729
 20
2576.6988239
 10
-1644.09790503
 20
2576.52747365
 10
-1643.95810859
 20
2576.31786846
 10
-1643.79598725
 20
2576.0747902
 10
-1643.61473027
 20
2575.80302073
 10
-1643.41752693
 20
2575.50734193
 10
-1643.2075665
 20
2575.19253565
 10
-1642.98803826
 20
2574.86338378
 10
-1642.76213147
 20
2574.52466816
 10
-1642.5330354
 20
2574.18117069
 10
-1642.30393934
 20
2573.83767321
 10
-1642.07803255
 20
2573.49895759
 10
-1641.8585043
 20
2573.16980572
 10
-1641.64854388
 20
2572.85499944
 10
-1641.45134054
 20
2572.55932064
 10
-1641.27008356
 20
2572.28755117
 10
-1641.10796222
 20
2572.04447291
 10
-1640.96816578
 20
2571.83486772
 10
-1640.85388352
 20
2571.66351747
 10
-1640.76830471
 20
2571.53520402
 10
-1640.71461863
 20
2571.45470925
 10
-1640.69601454
 20
2571.42681503
 10
-1640.69601454
 20
2571.42681503
 10
-1640.69601454
 20
2571.42681503
 10
-1640.69601454
 20
2571.42681503
 10
-1640.69601454
 20
2571.42681503
 10
-1640.69601454
 20
2571.42681503
 10
-1640.69601454
 20
2571.42681503
 10
-1640.69601454
 20
2571.42681503
 10
-1640.69601454
 20
2571.42681503
 10
-1640.69601454
 20
2571.42681503
 10
-1640.69601454
 20
2571.42681503
 10
-1640.69601454
 20
2571.42681503
 10
-1640.69601454
 20
2571.42681503
 10
-1640.69601454
 20
2571.42681503
 10
-1640.69601454
 20
2571.42681503
 10
-1640.69601454
 20
2571.42681503
 10
-1640.69601454
 20
2571.42681503
 10
-1640.69601454
 20
2571.42681503
 10
-1640.69601454
 20
2571.42681503
 10
-1640.69601454
 20
2571.42681503
 10
-1640.69601454
 20
2571.42681503
 10
-1640.69601454
 20
2571.42681503
 10
-1640.69601454
 20
2571.42681503
 10
-1640.69601454
 20
2571.42681503
 10
-1640.69601454
 20
2571.42681503
 10
-1640.71781286
 20
2571.42333165
 10
-1640.78071657
 20
2571.41327962
 10
-1640.88098884
 20
2571.39725609
 10
-1641.01489279
 20
2571.3758582
 10
-1641.17869158
 20
2571.34968312
 10
-1641.36864834
 20
2571.31932798
 10
-1641.58102624
 20
2571.28538994
 10
-1641.81208841
 20
2571.24846614
 10
-1642.05809799
 20
2571.20915375
 10
-1642.31531814
 20
2571.16804991
 10
-1642.580012
 20
2571.12575176
 10
-1642.84844272
 20
2571.08285647
 10
-1643.11687343
 20
2571.03996117
 10
-1643.38156729
 20
2570.99766303
 10
-1643.63878744
 20
2570.95655918
 10
-1643.88479702
 20
2570.91724679
 10
-1644.11585919
 20
2570.880323
 10
-1644.32823709
 20
2570.84638496
 10
-1644.51819386
 20
2570.81602982
 10
-1644.68199264
 20
2570.78985473
 10
-1644.8158966
 20
2570.76845685
 10
-1644.91616886
 20
2570.75243331
 10
-1644.97907258
 20
2570.74238128
 10
-1645.00087089
 20
2570.73889791
  0
LINE
  5
14B
100
AcDbEntity
  8
DETAIL_1
 62
    42
370
    -2
100
AcDbLine
 10
-1809.86417236
 20
2581.20376992
 30
0.0
 11
-1812.28931265
 21
2581.12531597
 31
0.0
  0
LWPOLYLINE
  5
14C
100
AcDbEntity
  8
DETAIL_1
 62
    42
370
    -3
100
AcDbPolyline
 90
      217
 70
     0
 43
0.0
 10
-1805.49348019
 20
2564.90470237
 10
-1805.74080578
 20
2565.00058185
 10
-1805.98686725
 20
2565.08977561
 10
-1806.23171954
 20
2565.1725153
 10
-1806.47541762
 20
2565.24903259
 10
-1806.71801646
 20
2565.31955914
 10
-1806.95957101
 20
2565.38432659
 10
-1807.20013624
 20
2565.44356662
 10
-1807.43976711
 20
2565.49751087
 10
-1807.67851859
 20
2565.546391
 10
-1807.91644563
 20
2565.59043869
 10
-1808.15360319
 20
2565.62988557
 10
-1808.39004625
 20
2565.66496331
 10
-1808.62582976
 20
2565.69590357
 10
-1808.86100868
 20
2565.72293801
 10
-1809.09563798
 20
2565.74629829
 10
-1809.32977262
 20
2565.76621605
 10
-1809.56346757
 20
2565.78292297
 10
-1809.79677777
 20
2565.79665069
 10
-1810.0297582
 20
2565.80763089
 10
-1810.26246382
 20
2565.81609521
 10
-1810.49494959
 20
2565.82227531
 10
-1810.72727047
 20
2565.82640285
 10
-1810.95948143
 20
2565.82870949
 10
-1811.19163743
 20
2565.8294269
 10
-1811.19163743
 20
2565.8294269
 10
-1811.19163743
 20
2565.8294269
 10
-1811.19163743
 20
2565.8294269
 10
-1811.19163743
 20
2565.8294269
 10
-1811.19163743
 20
2565.8294269
 10
-1811.19163743
 20
2565.8294269
 10
-1811.19163743
 20
2565.8294269
 10
-1811.19163743
 20
2565.8294269
 10
-1811.19163743
 20
2565.8294269
 10
-1811.19163743
 20
2565.8294269
 10
-1811.19163743
 20
2565.8294269
 10
-1811.19163743
 20
2565.8294269
 10
-1811.19163743
 20
2565.8294269
 10
-1811.19163743
 20
2565.8294269
 10
-1811.19163743
 20
2565.8294269
 10
-1811.19163743
 20
2565.8294269
 10
-1811.19163743
 20
2565.8294269
 10
-1811.19163743
 20
2565.8294269
 10
-1811.19163743
 20
2565.8294269
 10
-1811.19163743
 20
2565.8294269
 10
-1811.19163743
 20
2565.8294269
 10
-1811.19163743
 20
2565.8294269
 10
-1811.19163743
 20
2565.8294269
 10
-1811.19163743
 20
2565.8294269
 10
-1812.26321366
 20
2565.78408284
 10
-1813.32213413
 20
2565.6488146
 10
-1814.36547009
 20
2565.42476807
 10
-1815.39029278
 20
2565.11308916
 10
-1816.39367347
 20
2564.71492375
 10
-1817.37268339
 20
2564.23141776
 10
-1818.32439381
 20
2563.66371708
 10
-1819.24587597
 20
2563.01296761
 10
-1820.13420113
 20
2562.28031525
 10
-1820.98644054
 20
2561.46690589
 10
-1821.79966546
 20
2560.57388543
 10
-1822.57094712
 20
2559.60239978
 10
-1823.29735679
 20
2558.55359483
 10
-1823.97596572
 20
2557.42861648
 10
-1824.60384516
 20
2556.22861063
 10
-1825.17806636
 20
2554.95472318
 10
-1825.69570057
 20
2553.60810003
 10
-1826.15381905
 20
2552.18988707
 10
-1826.54949305
 20
2550.70123021
 10
-1826.87979381
 20
2549.14327534
 10
-1827.1417926
 20
2547.51716836
 10
-1827.33256065
 20
2545.82405517
 10
-1827.44916924
 20
2544.06508167
 10
-1827.4886896
 20
2542.24139376
 10
-1827.4886896
 20
2542.24139376
 10
-1827.4886896
 20
2542.24139376
 10
-1827.4886896
 20
2542.24139376
 10
-1827.4886896
 20
2542.24139376
 10
-1827.4886896
 20
2542.24139376
 10
-1827.4886896
 20
2542.24139376
 10
-1827.4886896
 20
2542.24139376
 10
-1827.4886896
 20
2542.24139376
 10
-1827.4886896
 20
2542.24139376
 10
-1827.4886896
 20
2542.24139376
 10
-1827.4886896
 20
2542.24139376
 10
-1827.4886896
 20
2542.24139376
 10
-1827.4886896
 20
2542.24139376
 10
-1827.4886896
 20
2542.24139376
 10
-1827.4886896
 20
2542.24139376
 10
-1827.4886896
 20
2542.24139376
 10
-1827.4886896
 20
2542.24139376
 10
-1827.4886896
 20
2542.24139376
 10
-1827.4886896
 20
2542.24139376
 10
-1827.4886896
 20
2542.24139376
 10
-1827.4886896
 20
2542.24139376
 10
-1827.4886896
 20
2542.24139376
 10
-1827.4886896
 20
2542.24139376
 10
-1827.4886896
 20
2542.24139376
 10
-1827.47432781
 20
2541.41774557
 10
-1827.43166058
 20
2540.63627636
 10
-1827.36131508
 20
2539.89635226
 10
-1827.2639185
 20
2539.19733936
 10
-1827.14009802
 20
2538.53860378
 10
-1826.99048082
 20
2537.91951163
 10
-1826.81569409
 20
2537.33942902
 10
-1826.61636501
 20
2536.79772207
 10
-1826.39312076
 20
2536.29375688
 10
-1826.14658852
 20
2535.82689956
 10
-1825.87739547
 20
2535.39651623
 10
-1825.58616881
 20
2535.00197299
 10
-1825.27353571
 20
2534.64263597
 10
-1824.94012336
 20
2534.31787126
 10
-1824.58655893
 20
2534.02704498
 10
-1824.21346961
 20
2533.76952324
 10
-1823.82148259
 20
2533.54467216
 10
-1823.41122504
 20
2533.35185783
 10
-1822.98332415
 20
2533.19044638
 10
-1822.5384071
 20
2533.05980392
 10
-1822.07710107
 20
2532.95929655
 10
-1821.60003325
 20
2532.88829038
 10
-1821.10783083
 20
2532.84615154
 10
-1820.60112097
 20
2532.83224612
 10
-1820.60112097
 20
2532.83224612
 10
-1820.60112097
 20
2532.83224612
 10
-1820.60112097
 20
2532.83224612
 10
-1820.60112097
 20
2532.83224612
 10
-1820.60112097
 20
2532.83224612
 10
-1820.60112097
 20
2532.83224612
 10
-1820.60112097
 20
2532.83224612
 10
-1820.60112097
 20
2532.83224612
 10
-1820.60112097
 20
2532.83224612
 10
-1820.60112097
 20
2532.83224612
 10
-1820.60112097
 20
2532.83224612
 10
-1820.60112097
 20
2532.83224612
 10
-1820.60112097
 20
2532.83224612
 10
-1820.60112097
 20
2532.83224612
 10
-1820.60112097
 20
2532.83224612
 10
-1820.60112097
 20
2532.83224612
 10
-1820.60112097
 20
2532.83224612
 10
-1820.60112097
 20
2532.83224612
 10
-1820.60112097
 20
2532.83224612
 10
-1820.60112097
 20
2532.83224612
 10
-1820.60112097
 20
2532.83224612
 10
-1820.60112097
 20
2532.83224612
 10
-1820.60112097
 20
2532.83224612
 10
-1820.60112097
 20
2532.83224612
 10
-1820.15671625
 20
2532.84331809
 10
-1819.71707633
 20
2532.87660941
 10
-1819.28145173
 20
2532.93223322
 10
-1818.84909294
 20
2533.01030265
 10
-1818.41925046
 20
2533.11093083
 10
-1817.99117479
 20
2533.23423089
 10
-1817.56411644
 20
2533.38031597
 10
-1817.1373259
 20
2533.5492992
 10
-1816.71005367
 20
2533.7412937
 10
-1816.28155026
 20
2533.95641262
 10
-1815.85106617
 20
2534.19476908
 10
-1815.41785189
 20
2534.45647622
 10
-1814.98115793
 20
2534.74164716
 10
-1814.54023478
 20
2535.05039504
 10
-1814.09433296
 20
2535.38283299
 10
-1813.64270295
 20
2535.73907415
 10
-1813.18459526
 20
2536.11923164
 10
-1812.71926039
 20
2536.5234186
 10
-1812.24594884
 20
2536.95174816
 10
-1811.76391111
 20
2537.40433344
 10
-1811.2723977
 20
2537.8812876
 10
-1810.77065912
 20
2538.38272374
 10
-1810.25794585
 20
2538.90875502
 10
-1809.73350842
 20
2539.45949455
 10
-1809.71203837
 20
2539.58834036
 10
-1809.65008193
 20
2539.96015257
 10
-1809.5513197
 20
2540.55284332
 10
-1809.41943225
 20
2541.34432476
 10
-1809.25810016
 20
2542.31250903
 10
-1809.071004
 20
2543.43530827
 10
-1808.86182437
 20
2544.69063464
 10
-1808.63424184
 20
2546.05640028
 10
-1808.39193698
 20
2547.51051734
 10
-1808.13859039
 20
2549.03089795
 10
-1807.87788264
 20
2550.59545428
 10
-1807.6134943
 20
2552.18209846
 10
-1807.34910597
 20
2553.76874264
 10
-1807.08839821
 20
2555.33329896
 10
-1806.83505162
 20
2556.85367958
 10
-1806.59274677
 20
2558.30779664
 10
-1806.36516423
 20
2559.67356228
 10
-1806.1559846
 20
2560.92888865
 10
-1805.96888845
 20
2562.05168789
 10
-1805.80755635
 20
2563.01987216
 10
-1805.6756689
 20
2563.8113536
 10
-1805.57690667
 20
2564.40404434
 10
-1805.51495024
 20
2564.77585655
 10
-1805.49348019
 20
2564.90470237
 10
-1805.49348019
 20
2564.90470237
 10
-1805.49348019
 20
2564.90470237
 10
-1805.49348019
 20
2564.90470237
 10
-1805.49348019
 20
2564.90470237
 10
-1805.49348019
 20
2564.90470237
 10
-1805.49348019
 20
2564.90470237
 10
-1805.49348019
 20
2564.90470237
 10
-1805.49348019
 20
2564.90470237
 10
-1805.49348019
 20
2564.90470237
 10
-1805.49348019
 20
2564.90470237
 10
-1805.49348019
 20
2564.90470237
 10
-1805.49348019
 20
2564.90470237
 10
-1805.49348019
 20
2564.90470237
 10
-1805.49348019
 20
2564.90470237
 10
-1805.49348019
 20
2564.90470237
 10
-1805.49348019
 20
2564.90470237
 10
-1805.49348019
 20
2564.90470237
 10
-1805.49348019
 20
2564.90470237
 10
-1805.49348019
 20
2564.90470237
 10
-1805.49348019
 20
2564.90470237
 10
-1805.49348019
 20
2564.90470237
 10
-1805.49348019
 20
2564.90470237
 10
-1805.49348019
 20
2564.90470237
 10
-1805.49348019
 20
2564.90470237
  0
LWPOLYLINE
  5
14D
100
AcDbEntity
  8
DETAIL_1
 62
    42
370
    -3
100
AcDbPolyline
 90
      289
 70
     0
 43
0.0
 10
-1812.28931265
 20
2581.12531597
 10
-1814.68950486
 20
2580.89087387
 10
-1817.05779239
 20
2580.5018232
 10
-1819.38721864
 20
2579.95954356
 10
-1821.67082703
 20
2579.26541455
 10
-1823.90166095
 20
2578.42081578
 10
-1826.0727638
 20
2577.42712683
 10
-1828.17717899
 20
2576.28572732
 10
-1830.20794992
 20
2574.99799682
 10
-1832.15812
 20
2573.56531495
 10
-1834.02073263
 20
2571.98906129
 10
-1835.78883121
 20
2570.27061546
 10
-1837.45545914
 20
2568.41135704
 10
-1839.01365983
 20
2566.41266563
 10
-1840.45647669
 20
2564.27592084
 10
-1841.77695311
 20
2562.00250226
 10
-1842.9681325
 20
2559.59378948
 10
-1844.02305827
 20
2557.05116211
 10
-1844.93477381
 20
2554.37599974
 10
-1845.69632253
 20
2551.56968197
 10
-1846.30074783
 20
2548.6335884
 10
-1846.74109312
 20
2545.56909863
 10
-1847.01040179
 20
2542.37759226
 10
-1847.10171726
 20
2539.06044888
 10
-1847.10171726
 20
2539.06044888
 10
-1847.10171726
 20
2539.06044888
 10
-1847.10171726
 20
2539.06044888
 10
-1847.10171726
 20
2539.06044888
 10
-1847.10171726
 20
2539.06044888
 10
-1847.10171726
 20
2539.06044888
 10
-1847.10171726
 20
2539.06044888
 10
-1847.10171726
 20
2539.06044888
 10
-1847.10171726
 20
2539.06044888
 10
-1847.10171726
 20
2539.06044888
 10
-1847.10171726
 20
2539.06044888
 10
-1847.10171726
 20
2539.06044888
 10
-1847.10171726
 20
2539.06044888
 10
-1847.10171726
 20
2539.06044888
 10
-1847.10171726
 20
2539.06044888
 10
-1847.10171726
 20
2539.06044888
 10
-1847.10171726
 20
2539.06044888
 10
-1847.10171726
 20
2539.06044888
 10
-1847.10171726
 20
2539.06044888
 10
-1847.10171726
 20
2539.06044888
 10
-1847.10171726
 20
2539.06044888
 10
-1847.10171726
 20
2539.06044888
 10
-1847.10171726
 20
2539.06044888
 10
-1847.10171726
 20
2539.06044888
 10
-1847.10163222
 20
2538.98545913
 10
-1847.10137981
 20
2538.91063297
 10
-1847.10096412
 20
2538.835966
 10
-1847.10038922
 20
2538.76145387
 10
-1847.09965921
 20
2538.68709218
 10
-1847.09877816
 20
2538.61287658
 10
-1847.09775016
 20
2538.53880268
 10
-1847.09657928
 20
2538.46486612
 10
-1847.09526961
 20
2538.39106251
 10
-1847.09382524
 20
2538.31738749
 10
-1847.09225023
 20
2538.24383669
 10
-1847.09054869
 20
2538.17040572
 10
-1847.08872468
 20
2538.09709021
 10
-1847.08678228
 20
2538.0238858
 10
-1847.0847256
 20
2537.9507881
 10
-1847.08255869
 20
2537.87779275
 10
-1847.08028565
 20
2537.80489537
 10
-1847.07791056
 20
2537.73209158
 10
-1847.0754375
 20
2537.65937702
 10
-1847.07287055
 20
2537.5867473
 10
-1847.07021379
 20
2537.51419806
 10
-1847.06747132
 20
2537.44172493
 10
-1847.06464719
 20
2537.36932352
 10
-1847.06174551
 20
2537.29698946
 10
-1847.06174551
 20
2537.29698946
 10
-1847.06174551
 20
2537.29698946
 10
-1847.06174551
 20
2537.29698946
 10
-1847.06174551
 20
2537.29698946
 10
-1847.06174551
 20
2537.29698946
 10
-1847.06174551
 20
2537.29698946
 10
-1847.06174551
 20
2537.29698946
 10
-1847.06174551
 20
2537.29698946
 10
-1847.06174551
 20
2537.29698946
 10
-1847.06174551
 20
2537.29698946
 10
-1847.06174551
 20
2537.29698946
 10
-1847.06174551
 20
2537.29698946
 10
-1847.06174551
 20
2537.29698946
 10
-1847.06174551
 20
2537.29698946
 10
-1847.06174551
 20
2537.29698946
 10
-1847.06174551
 20
2537.29698946
 10
-1847.06174551
 20
2537.29698946
 10
-1847.06174551
 20
2537.29698946
 10
-1847.06174551
 20
2537.29698946
 10
-1847.06174551
 20
2537.29698946
 10
-1847.06174551
 20
2537.29698946
 10
-1847.06174551
 20
2537.29698946
 10
-1847.06174551
 20
2537.29698946
 10
-1847.06174551
 20
2537.29698946
 10
-1848.00954399
 20
2536.75271847
 10
-1848.97668963
 20
2536.20974209
 10
-1849.96177748
 20
2535.66985176
 10
-1850.96340258
 20
2535.13483893
 10
-1851.98015995
 20
2534.60649506
 10
-1853.01064464
 20
2534.0866116
 10
-1854.05345168
 20
2533.57697999
 10
-1855.10717609
 20
2533.07939169
 10
-1856.17041293
 20
2532.59563815
 10
-1857.24175721
 20
2532.12751082
 10
-1858.31980399
 20
2531.67680115
 10
-1859.40314828
 20
2531.2453006
 10
-1860.49038513
 20
2530.8348006
 10
-1861.58010958
 20
2530.44709262
 10
-1862.67091665
 20
2530.0839681
 10
-1863.76140138
 20
2529.7472185
 10
-1864.85015881
 20
2529.43863526
 10
-1865.93578396
 20
2529.16000984
 10
-1867.01687189
 20
2528.91313368
 10
-1868.09201761
 20
2528.69979825
 10
-1869.15981617
 20
2528.52179498
 10
-1870.21886261
 20
2528.38091533
 10
-1871.26775194
 20
2528.27895076
 10
-1872.30507922
 20
2528.2176927
 10
-1872.30507922
 20
2528.2176927
 10
-1872.30507922
 20
2528.2176927
 10
-1872.30507922
 20
2528.2176927
 10
-1872.30507922
 20
2528.2176927
 10
-1872.30507922
 20
2528.2176927
 10
-1872.30507922
 20
2528.2176927
 10
-1872.30507922
 20
2528.2176927
 10
-1872.30507922
 20
2528.2176927
 10
-1872.30507922
 20
2528.2176927
 10
-1872.30507922
 20
2528.2176927
 10
-1872.30507922
 20
2528.2176927
 10
-1872.30507922
 20
2528.2176927
 10
-1872.30507922
 20
2528.2176927
 10
-1872.30507922
 20
2528.2176927
 10
-1872.30507922
 20
2528.2176927
 10
-1872.30507922
 20
2528.2176927
 10
-1872.30507922
 20
2528.2176927
 10
-1872.30507922
 20
2528.2176927
 10
-1872.30507922
 20
2528.2176927
 10
-1872.30507922
 20
2528.2176927
 10
-1872.30507922
 20
2528.2176927
 10
-1872.30507922
 20
2528.2176927
 10
-1872.30507922
 20
2528.2176927
 10
-1872.30507922
 20
2528.2176927
 10
-1872.35462748
 20
2528.21587015
 10
-1872.40418245
 20
2528.21409892
 10
-1872.45374383
 20
2528.21238133
 10
-1872.50331134
 20
2528.21071973
 10
-1872.55288468
 20
2528.20911644
 10
-1872.60246356
 20
2528.2075738
 10
-1872.65204768
 20
2528.20609415
 10
-1872.70163677
 20
2528.2046798
 10
-1872.75123051
 20
2528.2033331
 10
-1872.80082864
 20
2528.20205638
 10
-1872.85043084
 20
2528.20085198
 10
-1872.90003684
 20
2528.19972221
 10
-1872.94964633
 20
2528.19866942
 10
-1872.99925903
 20
2528.19769594
 10
-1873.04887465
 20
2528.19680411
 10
-1873.09849289
 20
2528.19599624
 10
-1873.14811346
 20
2528.19527469
 10
-1873.19773608
 20
2528.19464177
 10
-1873.24736044
 20
2528.19409982
 10
-1873.29698626
 20
2528.19365118
 10
-1873.34661325
 20
2528.19329818
 10
-1873.39624111
 20
2528.19304315
 10
-1873.44586956
 20
2528.19288842
 10
-1873.4954983
 20
2528.19283632
 10
-1873.4954983
 20
2528.19283632
 10
-1873.4954983
 20
2528.19283632
 10
-1873.4954983
 20
2528.19283632
 10
-1873.4954983
 20
2528.19283632
 10
-1873.4954983
 20
2528.19283632
 10
-1873.4954983
 20
2528.19283632
 10
-1873.4954983
 20
2528.19283632
 10
-1873.4954983
 20
2528.19283632
 10
-1873.4954983
 20
2528.19283632
 10
-1873.4954983
 20
2528.19283632
 10
-1873.4954983
 20
2528.19283632
 10
-1873.4954983
 20
2528.19283632
 10
-1873.4954983
 20
2528.19283632
 10
-1873.4954983
 20
2528.19283632
 10
-1873.4954983
 20
2528.19283632
 10
-1873.4954983
 20
2528.19283632
 10
-1873.4954983
 20
2528.19283632
 10
-1873.4954983
 20
2528.19283632
 10
-1873.4954983
 20
2528.19283632
 10
-1873.4954983
 20
2528.19283632
 10
-1873.4954983
 20
2528.19283632
 10
-1873.4954983
 20
2528.19283632
 10
-1873.4954983
 20
2528.19283632
 10
-1873.4954983
 20
2528.19283632
 10
-1874.56728802
 20
2528.21640636
 10
-1875.59606557
 20
2528.28749941
 10
-1876.58160017
 20
2528.40668989
 10
-1877.52366103
 20
2528.5745522
 10
-1878.42201737
 20
2528.79166074
 10
-1879.27643841
 20
2529.05858993
 10
-1880.08669337
 20
2529.37591417
 10
-1880.85255145
 20
2529.74420786
 10
-1881.57378188
 20
2530.16404543
 10
-1882.25015388
 20
2530.63600126
 10
-1882.88143666
 20
2531.16064978
 10
-1883.46739943
 20
2531.73856539
 10
-1884.00781142
 20
2532.37032249
 10
-1884.50244183
 20
2533.05649549
 10
-1884.9510599
 20
2533.7976588
 10
-1885.35343483
 20
2534.59438683
 10
-1885.70933583
 20
2535.44725398
 10
-1886.01853214
 20
2536.35683466
 10
-1886.28079295
 20
2537.32370329
 10
-1886.4958875
 20
2538.34843425
 10
-1886.66358499
 20
2539.43160197
 10
-1886.78365464
 20
2540.57378086
 10
-1886.85586568
 20
2541.7755453
 10
-1886.87998731
 20
2543.03746973
 10
-1886.87998731
 20
2543.03746973
 10
-1886.87998731
 20
2543.03746973
 10
-1886.87998731
 20
2543.03746973
 10
-1886.87998731
 20
2543.03746973
 10
-1886.87998731
 20
2543.03746973
 10
-1886.87998731
 20
2543.03746973
 10
-1886.87998731
 20
2543.03746973
 10
-1886.87998731
 20
2543.03746973
 10
-1886.87998731
 20
2543.03746973
 10
-1886.87998731
 20
2543.03746973
 10
-1886.87998731
 20
2543.03746973
 10
-1886.87998731
 20
2543.03746973
 10
-1886.87998731
 20
2543.03746973
 10
-1886.87998731
 20
2543.03746973
 10
-1886.87998731
 20
2543.03746973
 10
-1886.87998731
 20
2543.03746973
 10
-1886.87998731
 20
2543.03746973
 10
-1886.87998731
 20
2543.03746973
 10
-1886.87998731
 20
2543.03746973
 10
-1886.87998731
 20
2543.03746973
 10
-1886.87998731
 20
2543.03746973
 10
-1886.87998731
 20
2543.03746973
 10
-1886.87998731
 20
2543.03746973
 10
-1886.87998731
 20
2543.03746973
 10
-1886.87998731
 20
2543.03880151
 10
-1886.87998731
 20
2543.04264464
 10
-1886.87998731
 20
2543.04877083
 10
-1886.87998731
 20
2543.05695176
 10
-1886.87998731
 20
2543.06695913
 10
-1886.87998731
 20
2543.07856463
 10
-1886.87998731
 20
2543.09153997
 10
-1886.87998731
 20
2543.10565683
 10
-1886.87998731
 20
2543.12068691
 10
-1886.87998731
 20
2543.1364019
 10
-1886.87998731
 20
2543.15257351
 10
-1886.87998731
 20
2543.16897342
 10
-1886.87998731
 20
2543.18537333
 10
-1886.87998731
 20
2543.20154493
 10
-1886.87998731
 20
2543.21725993
 10
-1886.87998731
 20
2543.23229001
 10
-1886.87998731
 20
2543.24640687
 10
-1886.87998731
 20
2543.2593822
 10
-1886.87998731
 20
2543.27098771
 10
-1886.87998731
 20
2543.28099508
 10
-1886.87998731
 20
2543.28917601
 10
-1886.87998731
 20
2543.29530219
 10
-1886.87998731
 20
2543.29914532
 10
-1886.87998731
 20
2543.3004771
 10
-1886.87998731
 20
2543.3004771
 10
-1886.87998731
 20
2543.3004771
 10
-1886.87998731
 20
2543.3004771
 10
-1886.87998731
 20
2543.3004771
 10
-1886.87998731
 20
2543.3004771
 10
-1886.87998731
 20
2543.3004771
 10
-1886.87998731
 20
2543.3004771
 10
-1886.87998731
 20
2543.3004771
 10
-1886.87998731
 20
2543.3004771
 10
-1886.87998731
 20
2543.3004771
 10
-1886.87998731
 20
2543.3004771
 10
-1886.87998731
 20
2543.3004771
 10
-1886.87998731
 20
2543.3004771
 10
-1886.87998731
 20
2543.3004771
 10
-1886.87998731
 20
2543.3004771
 10
-1886.87998731
 20
2543.3004771
 10
-1886.87998731
 20
2543.3004771
 10
-1886.87998731
 20
2543.3004771
 10
-1886.87998731
 20
2543.3004771
 10
-1886.87998731
 20
2543.3004771
 10
-1886.87998731
 20
2543.3004771
 10
-1886.87998731
 20
2543.3004771
 10
-1886.87998731
 20
2543.3004771
 10
-1886.87998731
 20
2543.3004771
 10
-1886.69277452
 20
2543.3004771
  0
LWPOLYLINE
  5
14E
100
AcDbEntity
  8
DETAIL_1
 62
    42
370
    -3
100
AcDbPolyline
 90
      121
 70
     0
 43
0.0
 10
-1885.69091182
 20
2554.83182219
 10
-1885.59091952
 20
2554.83182219
 10
-1885.30237031
 20
2554.83182219
 10
-1884.84240574
 20
2554.83182219
 10
-1884.22816733
 20
2554.83182219
 10
-1883.47679663
 20
2554.83182219
 10
-1882.60543516
 20
2554.83182219
 10
-1881.63122448
 20
2554.83182219
 10
-1880.57130611
 20
2554.83182219
 10
-1879.44282159
 20
2554.83182219
 10
-1878.26291247
 20
2554.83182219
 10
-1877.04872027
 20
2554.83182219
 10
-1875.81738653
 20
2554.83182219
 10
-1874.58605279
 20
2554.83182219
 10
-1873.37186059
 20
2554.83182219
 10
-1872.19195146
 20
2554.83182219
 10
-1871.06346694
 20
2554.83182219
 10
-1870.00354858
 20
2554.83182219
 10
-1869.02933789
 20
2554.83182219
 10
-1868.15797643
 20
2554.83182219
 10
-1867.40660573
 20
2554.83182219
 10
-1866.79236732
 20
2554.83182219
 10
-1866.33240274
 20
2554.83182219
 10
-1866.04385354
 20
2554.83182219
 10
-1865.94386124
 20
2554.83182219
 10
-1865.94386124
 20
2554.83182219
 10
-1865.94386124
 20
2554.83182219
 10
-1865.94386124
 20
2554.83182219
 10
-1865.94386124
 20
2554.83182219
 10
-1865.94386124
 20
2554.83182219
 10
-1865.94386124
 20
2554.83182219
 10
-1865.94386124
 20
2554.83182219
 10
-1865.94386124
 20
2554.83182219
 10
-1865.94386124
 20
2554.83182219
 10
-1865.94386124
 20
2554.83182219
 10
-1865.94386124
 20
2554.83182219
 10
-1865.94386124
 20
2554.83182219
 10
-1865.94386124
 20
2554.83182219
 10
-1865.94386124
 20
2554.83182219
 10
-1865.94386124
 20
2554.83182219
 10
-1865.94386124
 20
2554.83182219
 10
-1865.94386124
 20
2554.83182219
 10
-1865.94386124
 20
2554.83182219
 10
-1865.94386124
 20
2554.83182219
 10
-1865.94386124
 20
2554.83182219
 10
-1865.94386124
 20
2554.83182219
 10
-1865.94386124
 20
2554.83182219
 10
-1865.94386124
 20
2554.83182219
 10
-1865.94386124
 20
2554.83182219
 10
-1865.84438403
 20
2555.90621536
 10
-1865.7783334
 20
2556.94266426
 10
-1865.74599755
 20
2557.94047771
 10
-1865.74766472
 20
2558.89896453
 10
-1865.78362312
 20
2559.81743353
 10
-1865.85416099
 20
2560.69519354
 10
-1865.95956654
 20
2561.53155336
 10
-1866.100128
 20
2562.32582181
 10
-1866.2761336
 20
2563.07730771
 10
-1866.48787156
 20
2563.78531987
 10
-1866.7356301
 20
2564.44916712
 10
-1867.01969744
 20
2565.06815826
 10
-1867.34036182
 20
2565.64160212
 10
-1867.69791145
 20
2566.1688075
 10
-1868.09263457
 20
2566.64908323
 10
-1868.52481938
 20
2567.08173811
 10
-1868.99475413
 20
2567.46608098
 10
-1869.50272702
 20
2567.80142064
 10
-1870.0490263
 20
2568.0870659
 10
-1870.63394017
 20
2568.32232559
 10
-1871.25775687
 20
2568.50650852
 10
-1871.92076461
 20
2568.63892351
 10
-1872.62325163
 20
2568.71887937
 10
-1873.36550615
 20
2568.74568492
 10
-1874.08645747
 20
2568.71557653
 10
-1874.79195548
 20
2568.62628655
 10
-1875.48164826
 20
2568.47936778
 10
-1876.15518387
 20
2568.27637301
 10
-1876.81221036
 20
2568.01885504
 10
-1877.45237582
 20
2567.70836666
 10
-1878.07532831
 20
2567.34646067
 10
-1878.68071589
 20
2566.93468986
 10
-1879.26818663
 20
2566.47460702
 10
-1879.83738859
 20
2565.96776496
 10
-1880.38796985
 20
2565.41571647
 10
-1880.91957846
 20
2564.82001433
 10
-1881.4318625
 20
2564.18221135
 10
-1881.92447002
 20
2563.50386032
 10
-1882.39704911
 20
2562.78651404
 10
-1882.84924781
 20
2562.0317253
 10
-1883.28071421
 20
2561.24104689
 10
-1883.69109636
 20
2560.41603161
 10
-1884.08004233
 20
2559.55823226
 10
-1884.44720019
 20
2558.66920163
 10
-1884.792218
 20
2557.75049251
 10
-1885.11474383
 20
2556.8036577
 10
-1885.41442575
 20
2555.83025
 10
-1885.69091182
 20
2554.83182219
 10
-1885.69091182
 20
2554.83182219
 10
-1885.69091182
 20
2554.83182219
 10
-1885.69091182
 20
2554.83182219
 10
-1885.69091182
 20
2554.83182219
 10
-1885.69091182
 20
2554.83182219
 10
-1885.69091182
 20
2554.83182219
 10
-1885.69091182
 20
2554.83182219
 10
-1885.69091182
 20
2554.83182219
 10
-1885.69091182
 20
2554.83182219
 10
-1885.69091182
 20
2554.83182219
 10
-1885.69091182
 20
2554.83182219
 10
-1885.69091182
 20
2554.83182219
 10
-1885.69091182
 20
2554.83182219
 10
-1885.69091182
 20
2554.83182219
 10
-1885.69091182
 20
2554.83182219
 10
-1885.69091182
 20
2554.83182219
 10
-1885.69091182
 20
2554.83182219
 10
-1885.69091182
 20
2554.83182219
 10
-1885.69091182
 20
2554.83182219
 10
-1885.69091182
 20
2554.83182219
 10
-1885.69091182
 20
2554.83182219
 10
-1885.69091182
 20
2554.83182219
 10
-1885.69091182
 20
2554.83182219
 10
-1885.69091182
 20
2554.83182219
  0
LWPOLYLINE
  5
14F
100
AcDbEntity
  8
DETAIL_1
 62
    42
370
    -3
100
AcDbPolyline
 90
      936
 70
     0
 43
0.0
 10
-1886.69277452
 20
2543.3004771
 10
-1886.15253192
 20
2543.3004771
 10
-1885.29135311
 20
2543.3004771
 10
-1884.14133173
 20
2543.3004771
 10
-1882.73456138
 20
2543.3004771
 10
-1881.10313569
 20
2543.3004771
 10
-1879.27914828
 20
2543.3004771
 10
-1877.29469277
 20
2543.3004771
 10
-1875.18186278
 20
2543.3004771
 10
-1872.97275193
 20
2543.3004771
 10
-1870.69945384
 20
2543.3004771
 10
-1868.39406213
 20
2543.3004771
 10
-1866.08867042
 20
2543.3004771
 10
-1863.81537233
 20
2543.3004771
 10
-1861.60626148
 20
2543.3004771
 10
-1859.49343149
 20
2543.3004771
 10
-1857.50897598
 20
2543.3004771
 10
-1855.68498858
 20
2543.3004771
 10
-1854.05356289
 20
2543.3004771
 10
-1852.64679254
 20
2543.3004771
 10
-1851.49677115
 20
2543.3004771
 10
-1850.63559235
 20
2543.3004771
 10
-1850.09534974
 20
2543.3004771
 10
-1849.90813696
 20
2543.3004771
 10
-1849.90813696
 20
2543.3004771
 10
-1849.90813696
 20
2543.3004771
 10
-1849.90813696
 20
2543.3004771
 10
-1849.90813696
 20
2543.3004771
 10
-1849.90813696
 20
2543.3004771
 10
-1849.90813696
 20
2543.3004771
 10
-1849.90813696
 20
2543.3004771
 10
-1849.90813696
 20
2543.3004771
 10
-1849.90813696
 20
2543.3004771
 10
-1849.90813696
 20
2543.3004771
 10
-1849.90813696
 20
2543.3004771
 10
-1849.90813696
 20
2543.3004771
 10
-1849.90813696
 20
2543.3004771
 10
-1849.90813696
 20
2543.3004771
 10
-1849.90813696
 20
2543.3004771
 10
-1849.90813696
 20
2543.3004771
 10
-1849.90813696
 20
2543.3004771
 10
-1849.90813696
 20
2543.3004771
 10
-1849.90813696
 20
2543.3004771
 10
-1849.90813696
 20
2543.3004771
 10
-1849.90813696
 20
2543.3004771
 10
-1849.90813696
 20
2543.3004771
 10
-1849.90813696
 20
2543.3004771
 10
-1849.90813696
 20
2543.3004771
 10
-1849.79391275
 20
2543.7388955
 10
-1849.68254031
 20
2544.19154331
 10
-1849.57419823
 20
2544.65750308
 10
-1849.46906511
 20
2545.13585736
 10
-1849.36731953
 20
2545.62568871
 10
-1849.26914009
 20
2546.12607967
 10
-1849.17470538
 20
2546.6361128
 10
-1849.08419398
 20
2547.15487066
 10
-1848.99778449
 20
2547.68143579
 10
-1848.91565551
 20
2548.21489074
 10
-1848.83798561
 20
2548.75431807
 10
-1848.7649534
 20
2549.29880033
 10
-1848.69673746
 20
2549.84742007
 10
-1848.63351639
 20
2550.39925985
 10
-1848.57546877
 20
2550.95340221
 10
-1848.5227732
 20
2551.50892971
 10
-1848.47560826
 20
2552.0649249
 10
-1848.43415256
 20
2552.62047033
 10
-1848.39858467
 20
2553.17464855
 10
-1848.3690832
 20
2553.72654212
 10
-1848.34582673
 20
2554.27523359
 10
-1848.32899385
 20
2554.81980551
 10
-1848.31876315
 20
2555.35934044
 10
-1848.31531324
 20
2555.89292091
 10
-1848.31531324
 20
2555.89292091
 10
-1848.31531324
 20
2555.89292091
 10
-1848.31531324
 20
2555.89292091
 10
-1848.31531324
 20
2555.89292091
 10
-1848.31531324
 20
2555.89292091
 10
-1848.31531324
 20
2555.89292091
 10
-1848.31531324
 20
2555.89292091
 10
-1848.31531324
 20
2555.89292091
 10
-1848.31531324
 20
2555.89292091
 10
-1848.31531324
 20
2555.89292091
 10
-1848.31531324
 20
2555.89292091
 10
-1848.31531324
 20
2555.89292091
 10
-1848.31531324
 20
2555.89292091
 10
-1848.31531324
 20
2555.89292091
 10
-1848.31531324
 20
2555.89292091
 10
-1848.31531324
 20
2555.89292091
 10
-1848.31531324
 20
2555.89292091
 10
-1848.31531324
 20
2555.89292091
 10
-1848.31531324
 20
2555.89292091
 10
-1848.31531324
 20
2555.89292091
 10
-1848.31531324
 20
2555.89292091
 10
-1848.31531324
 20
2555.89292091
 10
-1848.31531324
 20
2555.89292091
 10
-1848.31531324
 20
2555.89292091
 10
-1848.35866743
 20
2557.81891355
 10
-1848.48819407
 20
2559.68625644
 10
-1848.7030893
 20
2561.49287748
 10
-1849.00254923
 20
2563.23670458
 10
-1849.38576999
 20
2564.91566565
 10
-1849.85194768
 20
2566.5276886
 10
-1850.40027845
 20
2568.07070132
 10
-1851.0299584
 20
2569.54263173
 10
-1851.74018366
 20
2570.94140773
 10
-1852.53015035
 20
2572.26495724
 10
-1853.3990546
 20
2573.51120814
 10
-1854.34609251
 20
2574.67808836
 10
-1855.37046022
 20
2575.76352579
 10
-1856.47135385
 20
2576.76544834
 10
-1857.64796952
 20
2577.68178392
 10
-1858.89950334
 20
2578.51046044
 10
-1860.22515144
 20
2579.24940579
 10
-1861.62410995
 20
2579.8965479
 10
-1863.09557498
 20
2580.44981465
 10
-1864.63874265
 20
2580.90713397
 10
-1866.25280909
 20
2581.26643374
 10
-1867.93697042
 20
2581.52564189
 10
-1869.69042276
 20
2581.68268631
 10
-1871.51236222
 20
2581.73549492
 10
-1871.51236222
 20
2581.73549492
 10
-1871.51236222
 20
2581.73549492
 10
-1871.51236222
 20
2581.73549492
 10
-1871.51236222
 20
2581.73549492
 10
-1871.51236222
 20
2581.73549492
 10
-1871.51236222
 20
2581.73549492
 10
-1871.51236222
 20
2581.73549492
 10
-1871.51236222
 20
2581.73549492
 10
-1871.51236222
 20
2581.73549492
 10
-1871.51236222
 20
2581.73549492
 10
-1871.51236222
 20
2581.73549492
 10
-1871.51236222
 20
2581.73549492
 10
-1871.51236222
 20
2581.73549492
 10
-1871.51236222
 20
2581.73549492
 10
-1871.51236222
 20
2581.73549492
 10
-1871.51236222
 20
2581.73549492
 10
-1871.51236222
 20
2581.73549492
 10
-1871.51236222
 20
2581.73549492
 10
-1871.51236222
 20
2581.73549492
 10
-1871.51236222
 20
2581.73549492
 10
-1871.51236222
 20
2581.73549492
 10
-1871.51236222
 20
2581.73549492
 10
-1871.51236222
 20
2581.73549492
 10
-1871.51236222
 20
2581.73549492
 10
-1873.81201108
 20
2581.64921577
 10
-1876.06942671
 20
2581.39313906
 10
-1878.27966397
 20
2580.97140593
 10
-1880.43777771
 20
2580.3881575
 10
-1882.53882278
 20
2579.64753489
 10
-1884.57785402
 20
2578.75367924
 10
-1886.54992629
 20
2577.71073167
 10
-1888.45009444
 20
2576.5228333
 10
-1890.27341331
 20
2575.19412526
 10
-1892.01493775
 20
2573.72874868
 10
-1893.66972262
 20
2572.13084468
 10
-1895.23282276
 20
2570.4045544
 10
-1896.69929302
 20
2568.55401895
 10
-1898.06418826
 20
2566.58337947
 10
-1899.32256331
 20
2564.49677707
 10
-1900.46947303
 20
2562.2983529
 10
-1901.49997227
 20
2559.99224806
 10
-1902.40911588
 20
2557.58260369
 10
-1903.19195871
 20
2555.07356092
 10
-1903.8435556
 20
2552.46926087
 10
-1904.35896141
 20
2549.77384467
 10
-1904.73323099
 20
2546.99145345
 10
-1904.96141917
 20
2544.12622832
 10
-1905.03858083
 20
2541.18231042
 10
-1905.03858083
 20
2541.18231042
 10
-1905.03858083
 20
2541.18231042
 10
-1905.03858083
 20
2541.18231042
 10
-1905.03858083
 20
2541.18231042
 10
-1905.03858083
 20
2541.18231042
 10
-1905.03858083
 20
2541.18231042
 10
-1905.03858083
 20
2541.18231042
 10
-1905.03858083
 20
2541.18231042
 10
-1905.03858083
 20
2541.18231042
 10
-1905.03858083
 20
2541.18231042
 10
-1905.03858083
 20
2541.18231042
 10
-1905.03858083
 20
2541.18231042
 10
-1905.03858083
 20
2541.18231042
 10
-1905.03858083
 20
2541.18231042
 10
-1905.03858083
 20
2541.18231042
 10
-1905.03858083
 20
2541.18231042
 10
-1905.03858083
 20
2541.18231042
 10
-1905.03858083
 20
2541.18231042
 10
-1905.03858083
 20
2541.18231042
 10
-1905.03858083
 20
2541.18231042
 10
-1905.03858083
 20
2541.18231042
 10
-1905.03858083
 20
2541.18231042
 10
-1905.03858083
 20
2541.18231042
 10
-1905.03858083
 20
2541.18231042
 10
-1904.9770412
 20
2538.94595384
 10
-1904.79472269
 20
2536.80863308
 10
-1904.49507581
 20
2534.77000395
 10
-1904.08155109
 20
2532.82972223
 10
-1903.55759905
 20
2530.98744371
 10
-1902.92667023
 20
2529.2428242
 10
-1902.19221514
 20
2527.59551948
 10
-1901.35768431
 20
2526.04518535
 10
-1900.42652827
 20
2524.59147759
 10
-1899.40219754
 20
2523.23405201
 10
-1898.28814265
 20
2521.9725644
 10
-1897.08781412
 20
2520.80667054
 10
-1895.80466248
 20
2519.73602623
 10
-1894.44213826
 20
2518.76028727
 10
-1893.00369197
 20
2517.87910944
 10
-1891.49277416
 20
2517.09214855
 10
-1889.91283533
 20
2516.39906038
 10
-1888.26732602
 20
2515.79950073
 10
-1886.55969676
 20
2515.29312538
 10
-1884.79339806
 20
2514.87959014
 10
-1882.97188046
 20
2514.55855079
 10
-1881.09859447
 20
2514.32966313
 10
-1879.17699063
 20
2514.19258296
 10
-1877.21051947
 20
2514.14696606
 10
-1877.21051947
 20
2514.14696606
 10
-1877.21051947
 20
2514.14696606
 10
-1877.21051947
 20
2514.14696606
 10
-1877.21051947
 20
2514.14696606
 10
-1877.21051947
 20
2514.14696606
 10
-1877.21051947
 20
2514.14696606
 10
-1877.21051947
 20
2514.14696606
 10
-1877.21051947
 20
2514.14696606
 10
-1877.21051947
 20
2514.14696606
 10
-1877.21051947
 20
2514.14696606
 10
-1877.21051947
 20
2514.14696606
 10
-1877.21051947
 20
2514.14696606
 10
-1877.21051947
 20
2514.14696606
 10
-1877.21051947
 20
2514.14696606
 10
-1877.21051947
 20
2514.14696606
 10
-1877.21051947
 20
2514.14696606
 10
-1877.21051947
 20
2514.14696606
 10
-1877.21051947
 20
2514.14696606
 10
-1877.21051947
 20
2514.14696606
 10
-1877.21051947
 20
2514.14696606
 10
-1877.21051947
 20
2514.14696606
 10
-1877.21051947
 20
2514.14696606
 10
-1877.21051947
 20
2514.14696606
 10
-1877.21051947
 20
2514.14696606
 10
-1877.17492548
 20
2514.14701052
 10
-1877.13943312
 20
2514.14713984
 10
-1877.10403551
 20
2514.14734788
 10
-1877.06872582
 20
2514.14762852
 10
-1877.03349719
 20
2514.14797564
 10
-1876.99834276
 20
2514.14838312
 10
-1876.96325568
 20
2514.14884484
 10
-1876.92822911
 20
2514.14935466
 10
-1876.89325619
 20
2514.14990647
 10
-1876.85833007
 20
2514.15049414
 10
-1876.82344389
 20
2514.15111156
 10
-1876.78859081
 20
2514.15175259
 10
-1876.75376397
 20
2514.15241112
 10
-1876.71895651
 20
2514.15308102
 10
-1876.6841616
 20
2514.15375616
 10
-1876.64937237
 20
2514.15443044
 10
-1876.61458198
 20
2514.15509771
 10
-1876.57978357
 20
2514.15575186
 10
-1876.54497028
 20
2514.15638677
 10
-1876.51013528
 20
2514.15699632
 10
-1876.4752717
 20
2514.15757437
 10
-1876.44037269
 20
2514.15811481
 10
-1876.40543141
 20
2514.15861151
 10
-1876.37044099
 20
2514.15905835
 10
-1876.37044099
 20
2514.15905835
 10
-1876.37044099
 20
2514.15905835
 10
-1876.37044099
 20
2514.15905835
 10
-1876.37044099
 20
2514.15905835
 10
-1876.37044099
 20
2514.15905835
 10
-1876.37044099
 20
2514.15905835
 10
-1876.37044099
 20
2514.15905835
 10
-1876.37044099
 20
2514.15905835
 10
-1876.37044099
 20
2514.15905835
 10
-1876.37044099
 20
2514.15905835
 10
-1876.37044099
 20
2514.15905835
 10
-1876.37044099
 20
2514.15905835
 10
-1876.37044099
 20
2514.15905835
 10
-1876.37044099
 20
2514.15905835
 10
-1876.37044099
 20
2514.15905835
 10
-1876.37044099
 20
2514.15905835
 10
-1876.37044099
 20
2514.15905835
 10
-1876.37044099
 20
2514.15905835
 10
-1876.37044099
 20
2514.15905835
 10
-1876.37044099
 20
2514.15905835
 10
-1876.37044099
 20
2514.15905835
 10
-1876.37044099
 20
2514.15905835
 10
-1876.37044099
 20
2514.15905835
 10
-1876.37044099
 20
2514.15905835
 10
-1876.34611263
 20
2514.15733396
 10
-1876.32174739
 20
2514.15569005
 10
-1876.29734337
 20
2514.15413011
 10
-1876.27289867
 20
2514.15265765
 10
-1876.2484114
 20
2514.15127615
 10
-1876.22387967
 20
2514.14998913
 10
-1876.19930157
 20
2514.14880008
 10
-1876.17467522
 20
2514.14771249
 10
-1876.14999872
 20
2514.14672988
 10
-1876.12527017
 20
2514.14585573
 10
-1876.10048768
 20
2514.14509355
 10
-1876.07564936
 20
2514.14444683
 10
-1876.0507533
 20
2514.14391907
 10
-1876.02579761
 20
2514.14351378
 10
-1876.0007804
 20
2514.14323445
 10
-1875.97569977
 20
2514.14308458
 10
-1875.95055383
 20
2514.14306767
 10
-1875.92534068
 20
2514.14318722
 10
-1875.90005843
 20
2514.14344672
 10
-1875.87470518
 20
2514.14384968
 10
-1875.84927903
 20
2514.14439959
 10
-1875.8237781
 20
2514.14509996
 10
-1875.79820048
 20
2514.14595428
 10
-1875.77254427
 20
2514.14696606
 10
-1875.77254427
 20
2514.14696606
 10
-1875.77254427
 20
2514.14696606
 10
-1875.77254427
 20
2514.14696606
 10
-1875.77254427
 20
2514.14696606
 10
-1875.77254427
 20
2514.14696606
 10
-1875.77254427
 20
2514.14696606
 10
-1875.77254427
 20
2514.14696606
 10
-1875.77254427
 20
2514.14696606
 10
-1875.77254427
 20
2514.14696606
 10
-1875.77254427
 20
2514.14696606
 10
-1875.77254427
 20
2514.14696606
 10
-1875.77254427
 20
2514.14696606
 10
-1875.77254427
 20
2514.14696606
 10
-1875.77254427
 20
2514.14696606
 10
-1875.77254427
 20
2514.14696606
 10
-1875.77254427
 20
2514.14696606
 10
-1875.77254427
 20
2514.14696606
 10
-1875.77254427
 20
2514.14696606
 10
-1875.77254427
 20
2514.14696606
 10
-1875.77254427
 20
2514.14696606
 10
-1875.77254427
 20
2514.14696606
 10
-1875.77254427
 20
2514.14696606
 10
-1875.77254427
 20
2514.14696606
 10
-1875.77254427
 20
2514.14696606
 10
-1875.74794494
 20
2514.14802162
 10
-1875.72335538
 20
2514.14916844
 10
-1875.69877486
 20
2514.15039982
 10
-1875.67420264
 20
2514.15170905
 10
-1875.64963801
 20
2514.15308942
 10
-1875.62508023
 20
2514.15453424
 10
-1875.60052857
 20
2514.15603678
 10
-1875.57598231
 20
2514.15759036
 10
-1875.55144071
 20
2514.15918825
 10
-1875.52690305
 20
2514.16082375
 10
-1875.50236859
 20
2514.16249017
 10
-1875.47783662
 20
2514.16418078
 10
-1875.45330639
 20
2514.16588889
 10
-1875.42877718
 20
2514.16760778
 10
-1875.40424827
 20
2514.16933076
 10
-1875.37971892
 20
2514.17105112
 10
-1875.3551884
 20
2514.17276214
 10
-1875.33065598
 20
2514.17445713
 10
-1875.30612095
 20
2514.17612937
 10
-1875.28158256
 20
2514.17777217
 10
-1875.25704008
 20
2514.17937881
 10
-1875.2324928
 20
2514.18094259
 10
-1875.20793997
 20
2514.1824568
 10
-1875.18338088
 20
2514.18391473
 10
-1875.18338088
 20
2514.18391473
 10
-1875.18338088
 20
2514.18391473
 10
-1875.18338088
 20
2514.18391473
 10
-1875.18338088
 20
2514.18391473
 10
-1875.18338088
 20
2514.18391473
 10
-1875.18338088
 20
2514.18391473
 10
-1875.18338088
 20
2514.18391473
 10
-1875.18338088
 20
2514.18391473
 10
-1875.18338088
 20
2514.18391473
 10
-1875.18338088
 20
2514.18391473
 10
-1875.18338088
 20
2514.18391473
 10
-1875.18338088
 20
2514.18391473
 10
-1875.18338088
 20
2514.18391473
 10
-1875.18338088
 20
2514.18391473
 10
-1875.18338088
 20
2514.18391473
 10
-1875.18338088
 20
2514.18391473
 10
-1875.18338088
 20
2514.18391473
 10
-1875.18338088
 20
2514.18391473
 10
-1875.18338088
 20
2514.18391473
 10
-1875.18338088
 20
2514.18391473
 10
-1875.18338088
 20
2514.18391473
 10
-1875.18338088
 20
2514.18391473
 10
-1875.18338088
 20
2514.18391473
 10
-1875.18338088
 20
2514.18391473
 10
-1874.49365452
 20
2514.21179972
 10
-1873.81303063
 20
2514.24789145
 10
-1873.14119253
 20
2514.29213918
 10
-1872.4778236
 20
2514.34449217
 10
-1871.82260716
 20
2514.4048997
 10
-1871.17522657
 20
2514.47331102
 10
-1870.53536518
 20
2514.5496754
 10
-1869.90270633
 20
2514.63394211
 10
-1869.27693337
 20
2514.72606041
 10
-1868.65772964
 20
2514.82597957
 10
-1868.0447785
 20
2514.93364886
 10
-1867.43776329
 20
2515.04901753
 10
-1866.83636735
 20
2515.17203487
 10
-1866.24027404
 20
2515.30265012
 10
-1865.6491667
 20
2515.44081256
 10
-1865.06272868
 20
2515.58647145
 10
-1864.48064333
 20
2515.73957605
 10
-1863.90259398
 20
2515.90007564
 10
-1863.328264
 20
2516.06791948
 10
-1862.75733673
 20
2516.24305684
 10
-1862.18949551
 20
2516.42543697
 10
-1861.62442369
 20
2516.61500915
 10
-1861.06180462
 20
2516.81172264
 10
-1860.50132164
 20
2517.01552671
 10
-1860.50132164
 20
2517.01552671
 10
-1860.50132164
 20
2517.01552671
 10
-1860.50132164
 20
2517.01552671
 10
-1860.50132164
 20
2517.01552671
 10
-1860.50132164
 20
2517.01552671
 10
-1860.50132164
 20
2517.01552671
 10
-1860.50132164
 20
2517.01552671
 10
-1860.50132164
 20
2517.01552671
 10
-1860.50132164
 20
2517.01552671
 10
-1860.50132164
 20
2517.01552671
 10
-1860.50132164
 20
2517.01552671
 10
-1860.50132164
 20
2517.01552671
 10
-1860.50132164
 20
2517.01552671
 10
-1860.50132164
 20
2517.01552671
 10
-1860.50132164
 20
2517.01552671
 10
-1860.50132164
 20
2517.01552671
 10
-1860.50132164
 20
2517.01552671
 10
-1860.50132164
 20
2517.01552671
 10
-1860.50132164
 20
2517.01552671
 10
-1860.50132164
 20
2517.01552671
 10
-1860.50132164
 20
2517.01552671
 10
-1860.50132164
 20
2517.01552671
 10
-1860.50132164
 20
2517.01552671
 10
-1860.50132164
 20
2517.01552671
 10
-1859.70617027
 20
2517.27285367
 10
-1858.91716826
 20
2517.53767942
 10
-1858.13459378
 20
2517.80957417
 10
-1857.358725
 20
2518.08810813
 10
-1856.58984007
 20
2518.37285152
 10
-1855.82821717
 20
2518.66337456
 10
-1855.07413446
 20
2518.95924746
 10
-1854.3278701
 20
2519.26004043
 10
-1853.58970226
 20
2519.56532369
 10
-1852.8599091
 20
2519.87466746
 10
-1852.13876879
 20
2520.18764195
 10
-1851.42655949
 20
2520.50381738
 10
-1850.72355937
 20
2520.82276395
 10
-1850.03004659
 20
2521.14405189
 10
-1849.34629931
 20
2521.46725141
 10
-1848.67259571
 20
2521.79193273
 10
-1848.00921395
 20
2522.11766606
 10
-1847.35643218
 20
2522.44402161
 10
-1846.71452858
 20
2522.7705696
 10
-1846.08378131
 20
2523.09688026
 10
-1845.46446853
 20
2523.42252378
 10
-1844.85686842
 20
2523.74707039
 10
-1844.26125912
 20
2524.07009029
 10
-1843.67791882
 20
2524.39115372
 10
-1843.67791882
 20
2524.39115372
 10
-1843.67791882
 20
2524.39115372
 10
-1843.67791882
 20
2524.39115372
 10
-1843.67791882
 20
2524.39115372
 10
-1843.67791882
 20
2524.39115372
 10
-1843.67791882
 20
2524.39115372
 10
-1843.67791882
 20
2524.39115372
 10
-1843.67791882
 20
2524.39115372
 10
-1843.67791882
 20
2524.39115372
 10
-1843.67791882
 20
2524.39115372
 10
-1843.67791882
 20
2524.39115372
 10
-1843.67791882
 20
2524.39115372
 10
-1843.67791882
 20
2524.39115372
 10
-1843.67791882
 20
2524.39115372
 10
-1843.67791882
 20
2524.39115372
 10
-1843.67791882
 20
2524.39115372
 10
-1843.67791882
 20
2524.39115372
 10
-1843.67791882
 20
2524.39115372
 10
-1843.67791882
 20
2524.39115372
 10
-1843.67791882
 20
2524.39115372
 10
-1843.67791882
 20
2524.39115372
 10
-1843.67791882
 20
2524.39115372
 10
-1843.67791882
 20
2524.39115372
 10
-1843.67791882
 20
2524.39115372
 10
-1843.27554819
 20
2523.74851321
 10
-1842.85269601
 20
2523.1320056
 10
-1842.40965036
 20
2522.54173878
 10
-1841.9466993
 20
2521.97782063
 10
-1841.46413093
 20
2521.44035905
 10
-1840.96223331
 20
2520.9294619
 10
-1840.44129453
 20
2520.44523707
 10
-1839.90160267
 20
2519.98779245
 10
-1839.3434458
 20
2519.55723592
 10
-1838.767112
 20
2519.15367537
 10
-1838.17288935
 20
2518.77721868
 10
-1837.56106593
 20
2518.42797372
 10
-1836.93192982
 20
2518.10604839
 10
-1836.28576909
 20
2517.81155057
 10
-1835.62287183
 20
2517.54458815
 10
-1834.94352611
 20
2517.305269
 10
-1834.24802001
 20
2517.093701
 10
-1833.53664161
 20
2516.90999206
 10
-1832.80967899
 20
2516.75425004
 10
-1832.06742022
 20
2516.62658282
 10
-1831.31015339
 20
2516.52709831
 10
-1830.53816656
 20
2516.45590437
 10
-1829.75174783
 20
2516.41310889
 10
-1828.95118527
 20
2516.39881976
 10
-1828.95118527
 20
2516.39881976
 10
-1828.95118527
 20
2516.39881976
 10
-1828.95118527
 20
2516.39881976
 10
-1828.95118527
 20
2516.39881976
 10
-1828.95118527
 20
2516.39881976
 10
-1828.95118527
 20
2516.39881976
 10
-1828.95118527
 20
2516.39881976
 10
-1828.95118527
 20
2516.39881976
 10
-1828.95118527
 20
2516.39881976
 10
-1828.95118527
 20
2516.39881976
 10
-1828.95118527
 20
2516.39881976
 10
-1828.95118527
 20
2516.39881976
 10
-1828.95118527
 20
2516.39881976
 10
-1828.95118527
 20
2516.39881976
 10
-1828.95118527
 20
2516.39881976
 10
-1828.95118527
 20
2516.39881976
 10
-1828.95118527
 20
2516.39881976
 10
-1828.95118527
 20
2516.39881976
 10
-1828.95118527
 20
2516.39881976
 10
-1828.95118527
 20
2516.39881976
 10
-1828.95118527
 20
2516.39881976
 10
-1828.95118527
 20
2516.39881976
 10
-1828.95118527
 20
2516.39881976
 10
-1828.95118527
 20
2516.39881976
 10
-1828.09787113
 20
2516.41998569
 10
-1827.26053076
 20
2516.48256347
 10
-1826.4385915
 20
2516.58517307
 10
-1825.6314807
 20
2516.72643444
 10
-1824.83862569
 20
2516.90496755
 10
-1824.05945382
 20
2517.11939237
 10
-1823.29339244
 20
2517.36832885
 10
-1822.53986887
 20
2517.65039698
 10
-1821.79831047
 20
2517.9642167
 10
-1821.06814458
 20
2518.30840799
 10
-1820.34879854
 20
2518.6815908
 10
-1819.63969969
 20
2519.08238511
 10
-1818.94027538
 20
2519.50941088
 10
-1818.24995294
 20
2519.96128808
 10
-1817.56815972
 20
2520.43663666
 10
-1816.89432306
 20
2520.93407659
 10
-1816.2278703
 20
2521.45222784
 10
-1815.56822879
 20
2521.98971038
 10
-1814.91482587
 20
2522.54514416
 10
-1814.26708888
 20
2523.11714915
 10
-1813.62444516
 20
2523.70434532
 10
-1812.98632205
 20
2524.30535263
 10
-1812.3521469
 20
2524.91879105
 10
-1811.72134705
 20
2525.54328054
 10
-1811.72134705
 20
2525.54328054
 10
-1811.72134705
 20
2525.54328054
 10
-1811.72134705
 20
2525.54328054
 10
-1811.72134705
 20
2525.54328054
 10
-1811.72134705
 20
2525.54328054
 10
-1811.72134705
 20
2525.54328054
 10
-1811.72134705
 20
2525.54328054
 10
-1811.72134705
 20
2525.54328054
 10
-1811.72134705
 20
2525.54328054
 10
-1811.72134705
 20
2525.54328054
 10
-1811.72134705
 20
2525.54328054
 10
-1811.72134705
 20
2525.54328054
 10
-1811.72134705
 20
2525.54328054
 10
-1811.72134705
 20
2525.54328054
 10
-1811.72134705
 20
2525.54328054
 10
-1811.72134705
 20
2525.54328054
 10
-1811.72134705
 20
2525.54328054
 10
-1811.72134705
 20
2525.54328054
 10
-1811.72134705
 20
2525.54328054
 10
-1811.72134705
 20
2525.54328054
 10
-1811.72134705
 20
2525.54328054
 10
-1811.72134705
 20
2525.54328054
 10
-1811.72134705
 20
2525.54328054
 10
-1811.72134705
 20
2525.54328054
 10
-1811.72739193
 20
2525.51375348
 10
-1811.74483574
 20
2525.42854682
 10
-1811.7726422
 20
2525.29272235
 10
-1811.80977505
 20
2525.11134184
 10
-1811.85519803
 20
2524.88946707
 10
-1811.90787487
 20
2524.63215984
 10
-1811.9667693
 20
2524.34448192
 10
-1812.03084506
 20
2524.03149508
 10
-1812.09906588
 20
2523.69826113
 10
-1812.1703955
 20
2523.34984182
 10
-1812.24379765
 20
2522.99129895
 10
-1812.31823607
 20
2522.62769431
 10
-1812.39267449
 20
2522.26408966
 10
-1812.46607664
 20
2521.90554679
 10
-1812.53740626
 20
2521.55712749
 10
-1812.60562708
 20
2521.22389353
 10
-1812.66970284
 20
2520.9109067
 10
-1812.72859728
 20
2520.62322877
 10
-1812.78127411
 20
2520.36592154
 10
-1812.82669709
 20
2520.14404677
 10
-1812.86382995
 20
2519.96266627
 10
-1812.89163641
 20
2519.82684179
 10
-1812.90908021
 20
2519.74163513
 10
-1812.9151251
 20
2519.71210807
 10
-1812.9151251
 20
2519.71210807
 10
-1812.9151251
 20
2519.71210807
 10
-1812.9151251
 20
2519.71210807
 10
-1812.9151251
 20
2519.71210807
 10
-1812.9151251
 20
2519.71210807
 10
-1812.9151251
 20
2519.71210807
 10
-1812.9151251
 20
2519.71210807
 10
-1812.9151251
 20
2519.71210807
 10
-1812.9151251
 20
2519.71210807
 10
-1812.9151251
 20
2519.71210807
 10
-1812.9151251
 20
2519.71210807
 10
-1812.9151251
 20
2519.71210807
 10
-1812.9151251
 20
2519.71210807
 10
-1812.9151251
 20
2519.71210807
 10
-1812.9151251
 20
2519.71210807
 10
-1812.9151251
 20
2519.71210807
 10
-1812.9151251
 20
2519.71210807
 10
-1812.9151251
 20
2519.71210807
 10
-1812.9151251
 20
2519.71210807
 10
-1812.9151251
 20
2519.71210807
 10
-1812.9151251
 20
2519.71210807
 10
-1812.9151251
 20
2519.71210807
 10
-1812.9151251
 20
2519.71210807
 10
-1812.9151251
 20
2519.71210807
 10
-1813.12915728
 20
2518.64220119
 10
-1813.37533338
 20
2517.61909479
 10
-1813.65393259
 20
2516.64267575
 10
-1813.96523408
 20
2515.71283093
 10
-1814.30951704
 20
2514.8294472
 10
-1814.68706066
 20
2513.99241144
 10
-1815.09814413
 20
2513.20161049
 10
-1815.54304662
 20
2512.45693125
 10
-1816.02204733
 20
2511.75826056
 10
-1816.53542544
 20
2511.10548531
 10
-1817.08346013
 20
2510.49849235
 10
-1817.66643059
 20
2509.93716856
 10
-1818.28461601
 20
2509.42140081
 10
-1818.93829557
 20
2508.95107596
 10
-1819.62774845
 20
2508.52608088
 10
-1820.35325384
 20
2508.14630244
 10
-1821.11509093
 20
2507.8116275
 10
-1821.9135389
 20
2507.52194295
 10
-1822.74887694
 20
2507.27713563
 10
-1823.62138422
 20
2507.07709242
 10
-1824.53133995
 20
2506.9217002
 10
-1825.4790233
 20
2506.81084582
 10
-1826.46471345
 20
2506.74441616
 10
-1827.4886896
 20
2506.72229807
 10
-1827.4886896
 20
2506.72229807
 10
-1827.4886896
 20
2506.72229807
 10
-1827.4886896
 20
2506.72229807
 10
-1827.4886896
 20
2506.72229807
 10
-1827.4886896
 20
2506.72229807
 10
-1827.4886896
 20
2506.72229807
 10
-1827.4886896
 20
2506.72229807
 10
-1827.4886896
 20
2506.72229807
 10
-1827.4886896
 20
2506.72229807
 10
-1827.4886896
 20
2506.72229807
 10
-1827.4886896
 20
2506.72229807
 10
-1827.4886896
 20
2506.72229807
 10
-1827.4886896
 20
2506.72229807
 10
-1827.4886896
 20
2506.72229807
 10
-1827.4886896
 20
2506.72229807
 10
-1827.4886896
 20
2506.72229807
 10
-1827.4886896
 20
2506.72229807
 10
-1827.4886896
 20
2506.72229807
 10
-1827.4886896
 20
2506.72229807
 10
-1827.4886896
 20
2506.72229807
 10
-1827.4886896
 20
2506.72229807
 10
-1827.4886896
 20
2506.72229807
 10
-1827.4886896
 20
2506.72229807
 10
-1827.4886896
 20
2506.72229807
 10
-1828.41280504
 20
2506.73328723
 10
-1829.32884336
 20
2506.76598491
 10
-1830.23709686
 20
2506.81998638
 10
-1831.13785784
 20
2506.89488695
 10
-1832.03141861
 20
2506.9902819
 10
-1832.91807148
 20
2507.10576652
 10
-1833.79810875
 20
2507.24093612
 10
-1834.67182273
 20
2507.39538596
 10
-1835.53950573
 20
2507.56871136
 10
-1836.40145005
 20
2507.76050759
 10
-1837.25794799
 20
2507.97036995
 10
-1838.10929187
 20
2508.19789373
 10
-1838.95577399
 20
2508.44267422
 10
-1839.79768666
 20
2508.70430672
 10
-1840.63532218
 20
2508.9823865
 10
-1841.46897286
 20
2509.27650886
 10
-1842.298931
 20
2509.5862691
 10
-1843.12548892
 20
2509.9112625
 10
-1843.94893891
 20
2510.25108436
 10
-1844.76957329
 20
2510.60532996
 10
-1845.58768435
 20
2510.9735946
 10
-1846.40356442
 20
2511.35547356
 10
-1847.21750578
 20
2511.75056214
 10
-1848.02980076
 20
2512.15845563
 10
-1848.02980076
 20
2512.15845563
 10
-1848.02980076
 20
2512.15845563
 10
-1848.02980076
 20
2512.15845563
 10
-1848.02980076
 20
2512.15845563
 10
-1848.02980076
 20
2512.15845563
 10
-1848.02980076
 20
2512.15845563
 10
-1848.02980076
 20
2512.15845563
 10
-1848.02980076
 20
2512.15845563
 10
-1848.02980076
 20
2512.15845563
 10
-1848.02980076
 20
2512.15845563
 10
-1848.02980076
 20
2512.15845563
 10
-1848.02980076
 20
2512.15845563
 10
-1848.02980076
 20
2512.15845563
 10
-1848.02980076
 20
2512.15845563
 10
-1848.02980076
 20
2512.15845563
 10
-1848.02980076
 20
2512.15845563
 10
-1848.02980076
 20
2512.15845563
 10
-1848.02980076
 20
2512.15845563
 10
-1848.02980076
 20
2512.15845563
 10
-1848.02980076
 20
2512.15845563
 10
-1848.02980076
 20
2512.15845563
 10
-1848.02980076
 20
2512.15845563
 10
-1848.02980076
 20
2512.15845563
 10
-1848.02980076
 20
2512.15845563
 10
-1848.05463513
 20
2512.08262756
 10
-1848.12630001
 20
2511.8638094
 10
-1848.2405381
 20
2511.51500026
 10
-1848.39309206
 20
2511.04919923
 10
-1848.57970458
 20
2510.47940541
 10
-1848.79611835
 20
2509.8186179
 10
-1849.03807603
 20
2509.07983581
 10
-1849.30132031
 20
2508.27605822
 10
-1849.58159387
 20
2507.42028423
 10
-1849.87463939
 20
2506.52551295
 10
-1850.17619956
 20
2505.60474348
 10
-1850.48201704
 20
2504.6709749
 10
-1850.78783452
 20
2503.73720633
 10
-1851.08939468
 20
2502.81643685
 10
-1851.3824402
 20
2501.92166557
 10
-1851.66271376
 20
2501.06589159
 10
-1851.92595805
 20
2500.262114
 10
-1852.16791573
 20
2499.5233319
 10
-1852.38432949
 20
2498.8625444
 10
-1852.57094201
 20
2498.29275058
 10
-1852.72349598
 20
2497.82694955
 10
-1852.83773406
 20
2497.47814041
 10
-1852.90939895
 20
2497.25932225
 10
-1852.93423331
 20
2497.18349418
 10
-1852.93423331
 20
2497.18349418
 10
-1852.93423331
 20
2497.18349418
 10
-1852.93423331
 20
2497.18349418
 10
-1852.93423331
 20
2497.18349418
 10
-1852.93423331
 20
2497.18349418
 10
-1852.93423331
 20
2497.18349418
 10
-1852.93423331
 20
2497.18349418
 10
-1852.93423331
 20
2497.18349418
 10
-1852.93423331
 20
2497.18349418
 10
-1852.93423331
 20
2497.18349418
 10
-1852.93423331
 20
2497.18349418
 10
-1852.93423331
 20
2497.18349418
 10
-1852.93423331
 20
2497.18349418
 10
-1852.93423331
 20
2497.18349418
 10
-1852.93423331
 20
2497.18349418
 10
-1852.93423331
 20
2497.18349418
 10
-1852.93423331
 20
2497.18349418
 10
-1852.93423331
 20
2497.18349418
 10
-1852.93423331
 20
2497.18349418
 10
-1852.93423331
 20
2497.18349418
 10
-1852.93423331
 20
2497.18349418
 10
-1852.93423331
 20
2497.18349418
 10
-1852.93423331
 20
2497.18349418
 10
-1852.93423331
 20
2497.18349418
 10
-1852.07562651
 20
2496.77359366
 10
-1851.18865536
 20
2496.37271339
 10
-1850.27401411
 20
2495.98160212
 10
-1849.33239701
 20
2495.60100862
 10
-1848.36449829
 20
2495.23168167
 10
-1847.37101221
 20
2494.87437003
 10
-1846.35263301
 20
2494.52982249
 10
-1845.31005494
 20
2494.1987878
 10
-1844.24397224
 20
2493.88201474
 10
-1843.15507915
 20
2493.58025208
 10
-1842.04406993
 20
2493.29424858
 10
-1840.91163882
 20
2493.02475303
 10
-1839.75848006
 20
2492.77251419
 10
-1838.5852879
 20
2492.53828083
 10
-1837.39275659
 20
2492.32280171
 10
-1836.18158036
 20
2492.12682562
 10
-1834.95245348
 20
2491.95110132
 10
-1833.70607017
 20
2491.79637759
 10
-1832.44312469
 20
2491.66340318
 10
-1831.16431129
 20
2491.55292688
 10
-1829.8703242
 20
2491.46569746
 10
-1828.56185768
 20
2491.40246367
 10
-1827.23960596
 20
2491.36397431
 10
-1825.9042633
 20
2491.35097812
 10
-1825.9042633
 20
2491.35097812
 10
-1825.9042633
 20
2491.35097812
 10
-1825.9042633
 20
2491.35097812
 10
-1825.9042633
 20
2491.35097812
 10
-1825.9042633
 20
2491.35097812
 10
-1825.9042633
 20
2491.35097812
 10
-1825.9042633
 20
2491.35097812
 10
-1825.9042633
 20
2491.35097812
 10
-1825.9042633
 20
2491.35097812
 10
-1825.9042633
 20
2491.35097812
 10
-1825.9042633
 20
2491.35097812
 10
-1825.9042633
 20
2491.35097812
 10
-1825.9042633
 20
2491.35097812
 10
-1825.9042633
 20
2491.35097812
 10
-1825.9042633
 20
2491.35097812
 10
-1825.9042633
 20
2491.35097812
 10
-1825.9042633
 20
2491.35097812
 10
-1825.9042633
 20
2491.35097812
 10
-1825.9042633
 20
2491.35097812
 10
-1825.9042633
 20
2491.35097812
 10
-1825.9042633
 20
2491.35097812
 10
-1825.9042633
 20
2491.35097812
 10
-1825.9042633
 20
2491.35097812
 10
-1825.9042633
 20
2491.35097812
 10
-1823.93079088
 20
2491.38418421
 10
-1821.98791774
 20
2491.48683059
 10
-1820.07869612
 20
2491.66345946
 10
-1818.20617825
 20
2491.91861301
 10
-1816.37341635
 20
2492.25683342
 10
-1814.58346267
 20
2492.6826629
 10
-1812.83936943
 20
2493.20064363
 10
-1811.14418886
 20
2493.8153178
 10
-1809.5009732
 20
2494.5312276
 10
-1807.91277467
 20
2495.35291523
 10
-1806.3826455
 20
2496.28492287
 10
-1804.91363794
 20
2497.33179272
 10
-1803.5088042
 20
2498.49806696
 10
-1802.17119652
 20
2499.78828779
 10
-1800.90386713
 20
2501.2069974
 10
-1799.70986825
 20
2502.75873799
 10
-1798.59225214
 20
2504.44805173
 10
-1797.554071
 20
2506.27948082
 10
-1796.59837708
 20
2508.25756745
 10
-1795.7282226
 20
2510.38685382
 10
-1794.9466598
 20
2512.67188212
 10
-1794.2567409
 20
2515.11719452
 10
-1793.66151814
 20
2517.72733324
 10
-1793.16404375
 20
2520.50684045
 10
-1793.16404375
 20
2520.50684045
 10
-1793.16404375
 20
2520.50684045
 10
-1793.16404375
 20
2520.50684045
 10
-1793.16404375
 20
2520.50684045
 10
-1793.16404375
 20
2520.50684045
 10
-1793.16404375
 20
2520.50684045
 10
-1793.16404375
 20
2520.50684045
 10
-1793.16404375
 20
2520.50684045
 10
-1793.16404375
 20
2520.50684045
 10
-1793.16404375
 20
2520.50684045
 10
-1793.16404375
 20
2520.50684045
 10
-1793.16404375
 20
2520.50684045
 10
-1793.16404375
 20
2520.50684045
 10
-1793.16404375
 20
2520.50684045
 10
-1793.16404375
 20
2520.50684045
 10
-1793.16404375
 20
2520.50684045
 10
-1793.16404375
 20
2520.50684045
 10
-1793.16404375
 20
2520.50684045
 10
-1793.16404375
 20
2520.50684045
 10
-1793.16404375
 20
2520.50684045
 10
-1793.16404375
 20
2520.50684045
 10
-1793.16404375
 20
2520.50684045
 10
-1793.16404375
 20
2520.50684045
 10
-1793.16404375
 20
2520.50684045
 10
-1793.11978208
 20
2520.79070843
 10
-1792.99205553
 20
2521.60987032
 10
-1792.78845183
 20
2522.91566303
 10
-1792.51655868
 20
2524.65942348
 10
-1792.18396381
 20
2526.7924886
 10
-1791.79825493
 20
2529.26619529
 10
-1791.36701976
 20
2532.03188047
 10
-1790.89784601
 20
2535.04088107
 10
-1790.39832139
 20
2538.24453399
 10
-1789.87603363
 20
2541.59417617
 10
-1789.33857044
 20
2545.04114451
 10
-1788.79351953
 20
2548.53677593
 10
-1788.24846862
 20
2552.03240735
 10
-1787.71100543
 20
2555.47937569
 10
-1787.18871767
 20
2558.82901786
 10
-1786.68919305
 20
2562.03267078
 10
-1786.2200193
 20
2565.04167138
 10
-1785.78878413
 20
2567.80735657
 10
-1785.40307525
 20
2570.28106326
 10
-1785.07048038
 20
2572.41412837
 10
-1784.79858723
 20
2574.15788882
 10
-1784.59498353
 20
2575.46368153
 10
-1784.46725698
 20
2576.28284342
 10
-1784.42299531
 20
2576.5667114
 10
-1784.42299531
 20
2576.5667114
 10
-1784.42299531
 20
2576.5667114
 10
-1784.42299531
 20
2576.5667114
 10
-1784.42299531
 20
2576.5667114
 10
-1784.42299531
 20
2576.5667114
 10
-1784.42299531
 20
2576.5667114
 10
-1784.42299531
 20
2576.5667114
 10
-1784.42299531
 20
2576.5667114
 10
-1784.42299531
 20
2576.5667114
 10
-1784.42299531
 20
2576.5667114
 10
-1784.42299531
 20
2576.5667114
 10
-1784.42299531
 20
2576.5667114
 10
-1784.42299531
 20
2576.5667114
 10
-1784.42299531
 20
2576.5667114
 10
-1784.42299531
 20
2576.5667114
 10
-1784.42299531
 20
2576.5667114
 10
-1784.42299531
 20
2576.5667114
 10
-1784.42299531
 20
2576.5667114
 10
-1784.42299531
 20
2576.5667114
 10
-1784.42299531
 20
2576.5667114
 10
-1784.42299531
 20
2576.5667114
 10
-1784.42299531
 20
2576.5667114
 10
-1784.42299531
 20
2576.5667114
 10
-1784.42299531
 20
2576.5667114
 10
-1785.45154496
 20
2576.90955487
 10
-1786.48415513
 20
2577.24234184
 10
-1787.5206456
 20
2577.56466936
 10
-1788.56083619
 20
2577.87613445
 10
-1789.6045467
 20
2578.17633416
 10
-1790.65159694
 20
2578.46486553
 10
-1791.70180671
 20
2578.7413256
 10
-1792.75499581
 20
2579.00531141
 10
-1793.81098406
 20
2579.25642
 10
-1794.86959125
 20
2579.49424842
 10
-1795.9306372
 20
2579.71839369
 10
-1796.99394171
 20
2579.92845287
 10
-1798.05932457
 20
2580.12402298
 10
-1799.12660561
 20
2580.30470108
 10
-1800.19560462
 20
2580.47008421
 10
-1801.2661414
 20
2580.61976939
 10
-1802.33803578
 20
2580.75335368
 10
-1803.41110754
 20
2580.8704341
 10
-1804.48517649
 20
2580.97060772
 10
-1805.56006244
 20
2581.05347155
 10
-1806.6355852
 20
2581.11862265
 10
-1807.71156457
 20
2581.16565805
 10
-1808.78782036
 20
2581.19417479
 10
-1809.86417236
 20
2581.20376992
  0
LWPOLYLINE
  5
150
102
{ACAD_REACTORS
330
151
102
}
100
AcDbEntity
  8
DETAIL_1
 62
    28
  6
CONTINUOUS
370
    -3
100
AcDbPolyline
 90
       12
 70
     1
 43
0.0
 10
-610.55181383
 20
2559.59470576
 10
-633.07366787
 20
2559.59470576
 10
-633.07366787
 20
2520.84096705
 10
-609.99010759
 20
2520.84096705
 10
-609.99010759
 20
2527.13207693
 10
-625.71617152
 20
2527.13207693
 10
-625.71617152
 20
2537.85981072
 10
-613.02275103
 20
2537.85981072
 10
-614.03382226
 20
2544.09332433
 10
-625.71617152
 20
2544.09332433
 10
-625.71617152
 20
2553.30416613
 10
-610.55181383
 20
2553.30416613
  0
HATCH
  5
151
100
AcDbEntity
  8
DETAIL_1
 62
    28
  6
CONTINUOUS
100
AcDbHatch
 10
0.0
 20
0.0
 30
0.0
210
0.0
220
0.0
230
1.0
  2
SOLID
 70
     1
 71
     1
 91
        1
 92
        7
 72
     0
 73
     1
 93
       12
 10
-610.55181383
 20
2559.59470576
 10
-633.07366787
 20
2559.59470576
 10
-633.07366787
 20
2520.84096705
 10
-609.99010759
 20
2520.84096705
 10
-609.99010759
 20
2527.13207693
 10
-625.71617152
 20
2527.13207693
 10
-625.71617152
 20
2537.85981072
 10
-613.02275103
 20
2537.85981072
 10
-614.03382226
 20
2544.09332433
 10
-625.71617152
 20
2544.09332433
 10
-625.71617152
 20
2553.30416613
 10
-610.55181383
 20
2553.30416613
 97
        1
330
150
 75
     0
 76
     2
 47
0.775229
 98
        1
 10
0.0
 20
0.0
  0
LWPOLYLINE
  5
152
102
{ACAD_REACTORS
330
153
102
}
100
AcDbEntity
  8
DETAIL_1
 62
    28
  6
CONTINUOUS
370
    -3
100
AcDbPolyline
 90
      336
 70
     1
 43
0.0
 10
-576.10042194
 20
2558.3078753
 10
-576.52849883
 20
2558.50009142
 10
-576.96491132
 20
2558.68426449
 10
-577.40987845
 20
2558.86012621
 10
-577.86361928
 20
2559.02740829
 10
-578.32635283
 20
2559.18584244
 10
-578.79829817
 20
2559.33516033
 10
-579.27967433
 20
2559.47509369
 10
-579.77070037
 20
2559.60537421
 10
-580.27159532
 20
2559.72573358
 10
-580.78257823
 20
2559.83590352
 10
-581.30386815
 20
2559.93561572
 10
-581.83568412
 20
2560.02460188
 10
-582.37824519
 20
2560.1025937
 10
-582.9317704
 20
2560.16932288
 10
-583.49647879
 20
2560.22452112
 10
-584.07258942
 20
2560.26792013
 10
-584.66032133
 20
2560.2992516
 10
-585.25989356
 20
2560.31824724
 10
-585.87152516
 20
2560.32463874
 10
-587.32146759
 20
2560.28253428
 10
-588.72176521
 20
2560.15745549
 10
-590.07134631
 20
2559.95125423
 10
-591.36913918
 20
2559.66578235
 10
-592.61407209
 20
2559.30289171
 10
-593.80507335
 20
2558.86443418
 10
-594.94107124
 20
2558.35226162
 10
-596.02099404
 20
2557.76822589
 10
-597.04377004
 20
2557.11417884
 10
-598.00832753
 20
2556.39197234
 10
-598.9135948
 20
2555.60345824
 10
-599.75850013
 20
2554.75048842
 10
-600.54197181
 20
2553.83491472
 10
-601.26293813
 20
2552.85858902
 10
-601.92032737
 20
2551.82336316
 10
-602.51306782
 20
2550.73108901
 10
-603.04008777
 20
2549.58361844
 10
-603.50031551
 20
2548.38280329
 10
-603.89267932
 20
2547.13049544
 10
-604.21610749
 20
2545.82854673
 10
-604.46952831
 20
2544.47880904
 10
-604.65187006
 20
2543.08313423
 10
-604.76206104
 20
2541.64337414
 10
-604.79902952
 20
2540.16138065
 10
-604.76401409
 20
2538.68664222
 10
-604.65930886
 20
2537.25409016
 10
-604.48542543
 20
2535.86555308
 10
-604.2428754
 20
2534.52285958
 10
-603.93217037
 20
2533.22783823
 10
-603.55382195
 20
2531.98231764
 10
-603.10834173
 20
2530.78812641
 10
-602.59624132
 20
2529.64709312
 10
-602.01803231
 20
2528.56104638
 10
-601.37422631
 20
2527.53181477
 10
-600.66533491
 20
2526.56122689
 10
-599.89186972
 20
2525.65111134
 10
-599.05434234
 20
2524.80329671
 10
-598.15326436
 20
2524.0196116
 10
-597.1891474
 20
2523.30188459
 10
-596.16250304
 20
2522.65194429
 10
-595.07384289
 20
2522.07161929
 10
-593.92367855
 20
2521.56273818
 10
-592.71252163
 20
2521.12712956
 10
-591.44088371
 20
2520.76662202
 10
-590.10927641
 20
2520.48304416
 10
-588.71821132
 20
2520.27822457
 10
-587.26820004
 20
2520.15399185
 10
-585.75975417
 20
2520.11217459
 10
-585.11596537
 20
2520.12030921
 10
-584.47659163
 20
2520.14448537
 10
-583.84194927
 20
2520.1843615
 10
-583.2123546
 20
2520.23959605
 10
-582.58812394
 20
2520.30984744
 10
-581.9695736
 20
2520.39477413
 10
-581.35701991
 20
2520.49403454
 10
-580.75077917
 20
2520.60728712
 10
-580.15116771
 20
2520.73419029
 10
-579.55850184
 20
2520.87440251
 10
-578.97309788
 20
2521.0275822
 10
-578.39527214
 20
2521.19338782
 10
-577.82534093
 20
2521.37147778
 10
-577.26362059
 20
2521.56151054
 10
-576.71042741
 20
2521.76314453
 10
-576.16607772
 20
2521.97603818
 10
-575.63088784
 20
2522.19984994
 10
-575.10517407
 20
2522.43423824
 10
-574.58925274
 20
2522.67886153
 10
-574.08344016
 20
2522.93337823
 10
-573.58805265
 20
2523.19744679
 10
-573.10340653
 20
2523.47072565
 10
-572.6298181
 20
2523.75287324
 10
-572.16760369
 20
2524.043548
 10
-572.16760369
 20
2524.13711208
 10
-572.16760369
 20
2524.40711129
 10
-572.16760369
 20
2524.83750605
 10
-572.16760369
 20
2525.41225683
 10
-572.16760369
 20
2526.11532405
 10
-572.16760369
 20
2526.93066818
 10
-572.16760369
 20
2527.84224964
 10
-572.16760369
 20
2528.83402888
 10
-572.16760369
 20
2529.88996636
 10
-572.16760369
 20
2530.9940225
 10
-572.16760369
 20
2532.13015775
 10
-572.16760369
 20
2533.28233256
 10
-572.16760369
 20
2534.43450737
 10
-572.16760369
 20
2535.57064262
 10
-572.16760369
 20
2536.67469876
 10
-572.16760369
 20
2537.73063623
 10
-572.16760369
 20
2538.72241548
 10
-572.16760369
 20
2539.63399694
 10
-572.16760369
 20
2540.44934106
 10
-572.16760369
 20
2541.15240829
 10
-572.16760369
 20
2541.72715907
 10
-572.16760369
 20
2542.15755383
 10
-572.16760369
 20
2542.42755304
 10
-572.16760369
 20
2542.52111712
 10
-572.24638325
 20
2542.52111712
 10
-572.47371855
 20
2542.52111712
 10
-572.83610451
 20
2542.52111712
 10
-573.32003608
 20
2542.52111712
 10
-573.91200818
 20
2542.52111712
 10
-574.59851576
 20
2542.52111712
 10
-575.36605373
 20
2542.52111712
 10
-576.20111704
 20
2542.52111712
 10
-577.09020062
 20
2542.52111712
 10
-578.0197994
 20
2542.52111712
 10
-578.97640831
 20
2542.52111712
 10
-579.94652229
 20
2542.52111712
 10
-580.91663627
 20
2542.52111712
 10
-581.87324518
 20
2542.52111712
 10
-582.80284396
 20
2542.52111712
 10
-583.69192754
 20
2542.52111712
 10
-584.52699085
 20
2542.52111712
 10
-585.29452882
 20
2542.52111712
 10
-585.98103639
 20
2542.52111712
 10
-586.5730085
 20
2542.52111712
 10
-587.05694006
 20
2542.52111712
 10
-587.41932603
 20
2542.52111712
 10
-587.64666132
 20
2542.52111712
 10
-587.72544088
 20
2542.52111712
 10
-587.72089002
 20
2542.49096478
 10
-587.70775754
 20
2542.40395374
 10
-587.68682358
 20
2542.26525297
 10
-587.65886829
 20
2542.08003146
 10
-587.62467182
 20
2541.85345816
 10
-587.58501432
 20
2541.59070205
 10
-587.54067593
 20
2541.29693211
 10
-587.49243681
 20
2540.97731731
 10
-587.4410771
 20
2540.63702661
 10
-587.38737694
 20
2540.281229
 10
-587.33211649
 20
2539.91509344
 10
-587.27607589
 20
2539.54378892
 10
-587.22003529
 20
2539.17248439
 10
-587.16477484
 20
2538.80634883
 10
-587.11107468
 20
2538.45055122
 10
-587.05971497
 20
2538.11026052
 10
-587.01147584
 20
2537.79064572
 10
-586.96713746
 20
2537.49687578
 10
-586.92747996
 20
2537.23411967
 10
-586.89328349
 20
2537.00754637
 10
-586.8653282
 20
2536.82232486
 10
-586.84439424
 20
2536.68362409
 10
-586.83126176
 20
2536.59661306
 10
-586.8267109
 20
2536.56646072
 10
-586.78689664
 20
2536.56646072
 10
-586.67200407
 20
2536.56646072
 10
-586.48885849
 20
2536.56646072
 10
-586.24428521
 20
2536.56646072
 10
-585.94510951
 20
2536.56646072
 10
-585.5981567
 20
2536.56646072
 10
-585.21025209
 20
2536.56646072
 10
-584.78822098
 20
2536.56646072
 10
-584.33888866
 20
2536.56646072
 10
-583.86908043
 20
2536.56646072
 10
-583.38562161
 20
2536.56646072
 10
-582.89533748
 20
2536.56646072
 10
-582.40505335
 20
2536.56646072
 10
-581.92159453
 20
2536.56646072
 10
-581.4517863
 20
2536.56646072
 10
-581.00245398
 20
2536.56646072
 10
-580.58042287
 20
2536.56646072
 10
-580.19251826
 20
2536.56646072
 10
-579.84556545
 20
2536.56646072
 10
-579.54638975
 20
2536.56646072
 10
-579.30181647
 20
2536.56646072
 10
-579.11867089
 20
2536.56646072
 10
-579.00377832
 20
2536.56646072
 10
-578.96396406
 20
2536.56646072
 10
-578.96396406
 20
2536.5229561
 10
-578.96396406
 20
2536.39741422
 10
-578.96396406
 20
2536.19729301
 10
-578.96396406
 20
2535.9300504
 10
-578.96396406
 20
2535.60314432
 10
-578.96396406
 20
2535.2240327
 10
-578.96396406
 20
2534.80017349
 10
-578.96396406
 20
2534.3390246
 10
-578.96396406
 20
2533.84804399
 10
-578.96396406
 20
2533.33468957
 10
-578.96396406
 20
2532.80641929
 10
-578.96396406
 20
2532.27069107
 10
-578.96396406
 20
2531.73496285
 10
-578.96396406
 20
2531.20669257
 10
-578.96396406
 20
2530.69333815
 10
-578.96396406
 20
2530.20235753
 10
-578.96396406
 20
2529.74120865
 10
-578.96396406
 20
2529.31734944
 10
-578.96396406
 20
2528.93823782
 10
-578.96396406
 20
2528.61133174
 10
-578.96396406
 20
2528.34408913
 10
-578.96396406
 20
2528.14396791
 10
-578.96396406
 20
2528.01842603
 10
-578.96396406
 20
2527.97492142
 10
-579.20274033
 20
2527.85082062
 10
-579.44184701
 20
2527.7314606
 10
-579.68162643
 20
2527.61688938
 10
-579.92242088
 20
2527.50715498
 10
-580.16457266
 20
2527.40230541
 10
-580.40842409
 20
2527.30238869
 10
-580.65431747
 20
2527.20745283
 10
-580.9025951
 20
2527.11754586
 10
-581.15359928
 20
2527.03271578
 10
-581.40767233
 20
2526.95301063
 10
-581.66515654
 20
2526.8784784
 10
-581.92639422
 20
2526.80916713
 10
-582.19172767
 20
2526.74512482
 10
-582.46149921
 20
2526.68639949
 10
-582.73605113
 20
2526.63303916
 10
-583.01572573
 20
2526.58509185
 10
-583.30086533
 20
2526.54260557
 10
-583.59181223
 20
2526.50562835
 10
-583.88890873
 20
2526.47420818
 10
-584.19249714
 20
2526.4483931
 10
-584.50291975
 20
2526.42823112
 10
-584.82051889
 20
2526.41377026
 10
-585.14563684
 20
2526.40505853
 10
-585.47861592
 20
2526.40214395
 10
-586.4342876
 20
2526.43061637
 10
-587.3495708
 20
2526.51525347
 10
-588.22444078
 20
2526.65488503
 10
-589.05887278
 20
2526.84834083
 10
-589.85284205
 20
2527.09445065
 10
-590.60632383
 20
2527.39204427
 10
-591.31929339
 20
2527.73995147
 10
-591.99172597
 20
2528.13700203
 10
-592.62359681
 20
2528.58202571
 10
-593.21488117
 20
2529.07385232
 10
-593.76555429
 20
2529.61131161
 10
-594.27559143
 20
2530.19323337
 10
-594.74496784
 20
2530.81844738
 10
-595.17365875
 20
2531.48578343
 10
-595.56163943
 20
2532.19407127
 10
-595.90888512
 20
2532.9421407
 10
-596.21537107
 20
2533.7288215
 10
-596.48107253
 20
2534.55294344
 10
-596.70596475
 20
2535.4133363
 10
-596.89002297
 20
2536.30882986
 10
-597.03322246
 20
2537.23825389
 10
-597.13553845
 20
2538.20043819
 10
-597.19694619
 20
2539.19421252
 10
-597.21742094
 20
2540.21840666
 10
-597.1975313
 20
2541.23583379
 10
-597.13787889
 20
2542.22340469
 10
-597.03848845
 20
2543.17992462
 10
-596.89938475
 20
2544.10419887
 10
-596.72059252
 20
2544.99503271
 10
-596.50213651
 20
2545.85123141
 10
-596.24404149
 20
2546.67160024
 10
-595.9463322
 20
2547.4549445
 10
-595.60903339
 20
2548.20006944
 10
-595.23216982
 20
2548.90578035
 10
-594.81576623
 20
2549.5708825
 10
-594.35984737
 20
2550.19418117
 10
-593.864438
 20
2550.77448163
 10
-593.32956286
 20
2551.31058915
 10
-592.75524671
 20
2551.80130902
 10
-592.1415143
 20
2552.2454465
 10
-591.48839037
 20
2552.64180688
 10
-590.79589969
 20
2552.98919542
 10
-590.064067
 20
2553.28641741
 10
-589.29291704
 20
2553.53227811
 10
-588.48247458
 20
2553.72558281
 10
-587.63276437
 20
2553.86513678
 10
-586.74381114
 20
2553.94974529
 10
-585.81563967
 20
2553.97821362
 10
-585.28616954
 20
2553.97009929
 10
-584.76479345
 20
2553.94606521
 10
-584.25141387
 20
2553.90657469
 10
-583.74593328
 20
2553.85209109
 10
-583.24825417
 20
2553.78307773
 10
-582.75827902
 20
2553.69999795
 10
-582.2759103
 20
2553.6033151
 10
-581.80105051
 20
2553.4934925
 10
-581.33360212
 20
2553.37099349
 10
-580.87346761
 20
2553.23628142
 10
-580.42054946
 20
2553.0898196
 10
-579.97475016
 20
2552.93207139
 10
-579.53597219
 20
2552.76350012
 10
-579.10411803
 20
2552.58456912
 10
-578.67909016
 20
2552.39574173
 10
-578.26079107
 20
2552.19748129
 10
-577.84912322
 20
2551.99025113
 10
-577.44398912
 20
2551.77451459
 10
-577.04529123
 20
2551.550735
 10
-576.65293204
 20
2551.31937571
 10
-576.26681403
 20
2551.08090005
 10
-575.88683968
 20
2550.83577135
 10
-575.51291147
 20
2550.58445295
 10
-575.14493189
 20
2550.32740819
 10
-575.1395263
 20
2550.36238861
 10
-575.12392731
 20
2550.46333208
 10
-575.09906159
 20
2550.62424196
 10
-575.06585582
 20
2550.83912163
 10
-575.02523667
 20
2551.10197443
 10
-574.9781308
 20
2551.40680372
 10
-574.9254649
 20
2551.74761286
 10
-574.86816564
 20
2552.11840521
 10
-574.80715968
 20
2552.51318413
 10
-574.74337371
 20
2552.92595298
 10
-574.67773439
 20
2553.3507151
 10
-574.6111684
 20
2553.78147387
 10
-574.54460241
 20
2554.21223264
 10
-574.47896309
 20
2554.63699477
 10
-574.41517712
 20
2555.04976361
 10
-574.35417116
 20
2555.44454253
 10
-574.2968719
 20
2555.81533488
 10
-574.244206
 20
2556.15614403
 10
-574.19710014
 20
2556.46097332
 10
-574.15648098
 20
2556.72382612
 10
-574.12327521
 20
2556.93870578
 10
-574.09840949
 20
2557.09961567
 10
-574.0828105
 20
2557.20055914
 10
-574.07740491
 20
2557.23553955
 10
-574.46708948
 20
2557.46394639
 10
-574.86401442
 20
2557.68565169
 10
-575.26839878
 20
2557.90038714
 10
-575.68046161
 20
2558.10788444
  0
HATCH
  5
153
100
AcDbEntity
  8
DETAIL_1
 62
    28
  6
CONTINUOUS
100
AcDbHatch
 10
0.0
 20
0.0
 30
0.0
210
0.0
220
0.0
230
1.0
  2
SOLID
 70
     1
 71
     1
 91
        1
 92
        7
 72
     0
 73
     1
 93
      336
 10
-576.10042194
 20
2558.3078753
 10
-576.52849883
 20
2558.50009142
 10
-576.96491132
 20
2558.68426449
 10
-577.40987845
 20
2558.86012621
 10
-577.86361928
 20
2559.02740829
 10
-578.32635283
 20
2559.18584244
 10
-578.79829817
 20
2559.33516033
 10
-579.27967433
 20
2559.47509369
 10
-579.77070037
 20
2559.60537421
 10
-580.27159532
 20
2559.72573358
 10
-580.78257823
 20
2559.83590352
 10
-581.30386815
 20
2559.93561572
 10
-581.83568412
 20
2560.02460188
 10
-582.37824519
 20
2560.1025937
 10
-582.9317704
 20
2560.16932288
 10
-583.49647879
 20
2560.22452112
 10
-584.07258942
 20
2560.26792013
 10
-584.66032133
 20
2560.2992516
 10
-585.25989356
 20
2560.31824724
 10
-585.87152516
 20
2560.32463874
 10
-587.32146759
 20
2560.28253428
 10
-588.72176521
 20
2560.15745549
 10
-590.07134631
 20
2559.95125423
 10
-591.36913918
 20
2559.66578235
 10
-592.61407209
 20
2559.30289171
 10
-593.80507335
 20
2558.86443418
 10
-594.94107124
 20
2558.35226162
 10
-596.02099404
 20
2557.76822589
 10
-597.04377004
 20
2557.11417884
 10
-598.00832753
 20
2556.39197234
 10
-598.9135948
 20
2555.60345824
 10
-599.75850013
 20
2554.75048842
 10
-600.54197181
 20
2553.83491472
 10
-601.26293813
 20
2552.85858902
 10
-601.92032737
 20
2551.82336316
 10
-602.51306782
 20
2550.73108901
 10
-603.04008777
 20
2549.58361844
 10
-603.50031551
 20
2548.38280329
 10
-603.89267932
 20
2547.13049544
 10
-604.21610749
 20
2545.82854673
 10
-604.46952831
 20
2544.47880904
 10
-604.65187006
 20
2543.08313423
 10
-604.76206104
 20
2541.64337414
 10
-604.79902952
 20
2540.16138065
 10
-604.76401409
 20
2538.68664222
 10
-604.65930886
 20
2537.25409016
 10
-604.48542543
 20
2535.86555308
 10
-604.2428754
 20
2534.52285958
 10
-603.93217037
 20
2533.22783823
 10
-603.55382195
 20
2531.98231764
 10
-603.10834173
 20
2530.78812641
 10
-602.59624132
 20
2529.64709312
 10
-602.01803231
 20
2528.56104638
 10
-601.37422631
 20
2527.53181477
 10
-600.66533491
 20
2526.56122689
 10
-599.89186972
 20
2525.65111134
 10
-599.05434234
 20
2524.80329671
 10
-598.15326436
 20
2524.0196116
 10
-597.1891474
 20
2523.30188459
 10
-596.16250304
 20
2522.65194429
 10
-595.07384289
 20
2522.07161929
 10
-593.92367855
 20
2521.56273818
 10
-592.71252163
 20
2521.12712956
 10
-591.44088371
 20
2520.76662202
 10
-590.10927641
 20
2520.48304416
 10
-588.71821132
 20
2520.27822457
 10
-587.26820004
 20
2520.15399185
 10
-585.75975417
 20
2520.11217459
 10
-585.11596537
 20
2520.12030921
 10
-584.47659163
 20
2520.14448537
 10
-583.84194927
 20
2520.1843615
 10
-583.2123546
 20
2520.23959605
 10
-582.58812394
 20
2520.30984744
 10
-581.9695736
 20
2520.39477413
 10
-581.35701991
 20
2520.49403454
 10
-580.75077917
 20
2520.60728712
 10
-580.15116771
 20
2520.73419029
 10
-579.55850184
 20
2520.87440251
 10
-578.97309788
 20
2521.0275822
 10
-578.39527214
 20
2521.19338782
 10
-577.82534093
 20
2521.37147778
 10
-577.26362059
 20
2521.56151054
 10
-576.71042741
 20
2521.76314453
 10
-576.16607772
 20
2521.97603818
 10
-575.63088784
 20
2522.19984994
 10
-575.10517407
 20
2522.43423824
 10
-574.58925274
 20
2522.67886153
 10
-574.08344016
 20
2522.93337823
 10
-573.58805265
 20
2523.19744679
 10
-573.10340653
 20
2523.47072565
 10
-572.6298181
 20
2523.75287324
 10
-572.16760369
 20
2524.043548
 10
-572.16760369
 20
2524.13711208
 10
-572.16760369
 20
2524.40711129
 10
-572.16760369
 20
2524.83750605
 10
-572.16760369
 20
2525.41225683
 10
-572.16760369
 20
2526.11532405
 10
-572.16760369
 20
2526.93066818
 10
-572.16760369
 20
2527.84224964
 10
-572.16760369
 20
2528.83402888
 10
-572.16760369
 20
2529.88996636
 10
-572.16760369
 20
2530.9940225
 10
-572.16760369
 20
2532.13015775
 10
-572.16760369
 20
2533.28233256
 10
-572.16760369
 20
2534.43450737
 10
-572.16760369
 20
2535.57064262
 10
-572.16760369
 20
2536.67469876
 10
-572.16760369
 20
2537.73063623
 10
-572.16760369
 20
2538.72241548
 10
-572.16760369
 20
2539.63399694
 10
-572.16760369
 20
2540.44934106
 10
-572.16760369
 20
2541.15240829
 10
-572.16760369
 20
2541.72715907
 10
-572.16760369
 20
2542.15755383
 10
-572.16760369
 20
2542.42755304
 10
-572.16760369
 20
2542.52111712
 10
-572.24638325
 20
2542.52111712
 10
-572.47371855
 20
2542.52111712
 10
-572.83610451
 20
2542.52111712
 10
-573.32003608
 20
2542.52111712
 10
-573.91200818
 20
2542.52111712
 10
-574.59851576
 20
2542.52111712
 10
-575.36605373
 20
2542.52111712
 10
-576.20111704
 20
2542.52111712
 10
-577.09020062
 20
2542.52111712
 10
-578.0197994
 20
2542.52111712
 10
-578.97640831
 20
2542.52111712
 10
-579.94652229
 20
2542.52111712
 10
-580.91663627
 20
2542.52111712
 10
-581.87324518
 20
2542.52111712
 10
-582.80284396
 20
2542.52111712
 10
-583.69192754
 20
2542.52111712
 10
-584.52699085
 20
2542.52111712
 10
-585.29452882
 20
2542.52111712
 10
-585.98103639
 20
2542.52111712
 10
-586.5730085
 20
2542.52111712
 10
-587.05694006
 20
2542.52111712
 10
-587.41932603
 20
2542.52111712
 10
-587.64666132
 20
2542.52111712
 10
-587.72544088
 20
2542.52111712
 10
-587.72089002
 20
2542.49096478
 10
-587.70775754
 20
2542.40395374
 10
-587.68682358
 20
2542.26525297
 10
-587.65886829
 20
2542.08003146
 10
-587.62467182
 20
2541.85345816
 10
-587.58501432
 20
2541.59070205
 10
-587.54067593
 20
2541.29693211
 10
-587.49243681
 20
2540.97731731
 10
-587.4410771
 20
2540.63702661
 10
-587.38737694
 20
2540.281229
 10
-587.33211649
 20
2539.91509344
 10
-587.27607589
 20
2539.54378892
 10
-587.22003529
 20
2539.17248439
 10
-587.16477484
 20
2538.80634883
 10
-587.11107468
 20
2538.45055122
 10
-587.05971497
 20
2538.11026052
 10
-587.01147584
 20
2537.79064572
 10
-586.96713746
 20
2537.49687578
 10
-586.92747996
 20
2537.23411967
 10
-586.89328349
 20
2537.00754637
 10
-586.8653282
 20
2536.82232486
 10
-586.84439424
 20
2536.68362409
 10
-586.83126176
 20
2536.59661306
 10
-586.8267109
 20
2536.56646072
 10
-586.78689664
 20
2536.56646072
 10
-586.67200407
 20
2536.56646072
 10
-586.48885849
 20
2536.56646072
 10
-586.24428521
 20
2536.56646072
 10
-585.94510951
 20
2536.56646072
 10
-585.5981567
 20
2536.56646072
 10
-585.21025209
 20
2536.56646072
 10
-584.78822098
 20
2536.56646072
 10
-584.33888866
 20
2536.56646072
 10
-583.86908043
 20
2536.56646072
 10
-583.38562161
 20
2536.56646072
 10
-582.89533748
 20
2536.56646072
 10
-582.40505335
 20
2536.56646072
 10
-581.92159453
 20
2536.56646072
 10
-581.4517863
 20
2536.56646072
 10
-581.00245398
 20
2536.56646072
 10
-580.58042287
 20
2536.56646072
 10
-580.19251826
 20
2536.56646072
 10
-579.84556545
 20
2536.56646072
 10
-579.54638975
 20
2536.56646072
 10
-579.30181647
 20
2536.56646072
 10
-579.11867089
 20
2536.56646072
 10
-579.00377832
 20
2536.56646072
 10
-578.96396406
 20
2536.56646072
 10
-578.96396406
 20
2536.5229561
 10
-578.96396406
 20
2536.39741422
 10
-578.96396406
 20
2536.19729301
 10
-578.96396406
 20
2535.9300504
 10
-578.96396406
 20
2535.60314432
 10
-578.96396406
 20
2535.2240327
 10
-578.96396406
 20
2534.80017349
 10
-578.96396406
 20
2534.3390246
 10
-578.96396406
 20
2533.84804399
 10
-578.96396406
 20
2533.33468957
 10
-578.96396406
 20
2532.80641929
 10
-578.96396406
 20
2532.27069107
 10
-578.96396406
 20
2531.73496285
 10
-578.96396406
 20
2531.20669257
 10
-578.96396406
 20
2530.69333815
 10
-578.96396406
 20
2530.20235753
 10
-578.96396406
 20
2529.74120865
 10
-578.96396406
 20
2529.31734944
 10
-578.96396406
 20
2528.93823782
 10
-578.96396406
 20
2528.61133174
 10
-578.96396406
 20
2528.34408913
 10
-578.96396406
 20
2528.14396791
 10
-578.96396406
 20
2528.01842603
 10
-578.96396406
 20
2527.97492142
 10
-579.20274033
 20
2527.85082062
 10
-579.44184701
 20
2527.7314606
 10
-579.68162643
 20
2527.61688938
 10
-579.92242088
 20
2527.50715498
 10
-580.16457266
 20
2527.40230541
 10
-580.40842409
 20
2527.30238869
 10
-580.65431747
 20
2527.20745283
 10
-580.9025951
 20
2527.11754586
 10
-581.15359928
 20
2527.03271578
 10
-581.40767233
 20
2526.95301063
 10
-581.66515654
 20
2526.8784784
 10
-581.92639422
 20
2526.80916713
 10
-582.19172767
 20
2526.74512482
 10
-582.46149921
 20
2526.68639949
 10
-582.73605113
 20
2526.63303916
 10
-583.01572573
 20
2526.58509185
 10
-583.30086533
 20
2526.54260557
 10
-583.59181223
 20
2526.50562835
 10
-583.88890873
 20
2526.47420818
 10
-584.19249714
 20
2526.4483931
 10
-584.50291975
 20
2526.42823112
 10
-584.82051889
 20
2526.41377026
 10
-585.14563684
 20
2526.40505853
 10
-585.47861592
 20
2526.40214395
 10
-586.4342876
 20
2526.43061637
 10
-587.3495708
 20
2526.51525347
 10
-588.22444078
 20
2526.65488503
 10
-589.05887278
 20
2526.84834083
 10
-589.85284205
 20
2527.09445065
 10
-590.60632383
 20
2527.39204427
 10
-591.31929339
 20
2527.73995147
 10
-591.99172597
 20
2528.13700203
 10
-592.62359681
 20
2528.58202571
 10
-593.21488117
 20
2529.07385232
 10
-593.76555429
 20
2529.61131161
 10
-594.27559143
 20
2530.19323337
 10
-594.74496784
 20
2530.81844738
 10
-595.17365875
 20
2531.48578343
 10
-595.56163943
 20
2532.19407127
 10
-595.90888512
 20
2532.9421407
 10
-596.21537107
 20
2533.7288215
 10
-596.48107253
 20
2534.55294344
 10
-596.70596475
 20
2535.4133363
 10
-596.89002297
 20
2536.30882986
 10
-597.03322246
 20
2537.23825389
 10
-597.13553845
 20
2538.20043819
 10
-597.19694619
 20
2539.19421252
 10
-597.21742094
 20
2540.21840666
 10
-597.1975313
 20
2541.23583379
 10
-597.13787889
 20
2542.22340469
 10
-597.03848845
 20
2543.17992462
 10
-596.89938475
 20
2544.10419887
 10
-596.72059252
 20
2544.99503271
 10
-596.50213651
 20
2545.85123141
 10
-596.24404149
 20
2546.67160024
 10
-595.9463322
 20
2547.4549445
 10
-595.60903339
 20
2548.20006944
 10
-595.23216982
 20
2548.90578035
 10
-594.81576623
 20
2549.5708825
 10
-594.35984737
 20
2550.19418117
 10
-593.864438
 20
2550.77448163
 10
-593.32956286
 20
2551.31058915
 10
-592.75524671
 20
2551.80130902
 10
-592.1415143
 20
2552.2454465
 10
-591.48839037
 20
2552.64180688
 10
-590.79589969
 20
2552.98919542
 10
-590.064067
 20
2553.28641741
 10
-589.29291704
 20
2553.53227811
 10
-588.48247458
 20
2553.72558281
 10
-587.63276437
 20
2553.86513678
 10
-586.74381114
 20
2553.94974529
 10
-585.81563967
 20
2553.97821362
 10
-585.28616954
 20
2553.97009929
 10
-584.76479345
 20
2553.94606521
 10
-584.25141387
 20
2553.90657469
 10
-583.74593328
 20
2553.85209109
 10
-583.24825417
 20
2553.78307773
 10
-582.75827902
 20
2553.69999795
 10
-582.2759103
 20
2553.6033151
 10
-581.80105051
 20
2553.4934925
 10
-581.33360212
 20
2553.37099349
 10
-580.87346761
 20
2553.23628142
 10
-580.42054946
 20
2553.0898196
 10
-579.97475016
 20
2552.93207139
 10
-579.53597219
 20
2552.76350012
 10
-579.10411803
 20
2552.58456912
 10
-578.67909016
 20
2552.39574173
 10
-578.26079107
 20
2552.19748129
 10
-577.84912322
 20
2551.99025113
 10
-577.44398912
 20
2551.77451459
 10
-577.04529123
 20
2551.550735
 10
-576.65293204
 20
2551.31937571
 10
-576.26681403
 20
2551.08090005
 10
-575.88683968
 20
2550.83577135
 10
-575.51291147
 20
2550.58445295
 10
-575.14493189
 20
2550.32740819
 10
-575.1395263
 20
2550.36238861
 10
-575.12392731
 20
2550.46333208
 10
-575.09906159
 20
2550.62424196
 10
-575.06585582
 20
2550.83912163
 10
-575.02523667
 20
2551.10197443
 10
-574.9781308
 20
2551.40680372
 10
-574.9254649
 20
2551.74761286
 10
-574.86816564
 20
2552.11840521
 10
-574.80715968
 20
2552.51318413
 10
-574.74337371
 20
2552.92595298
 10
-574.67773439
 20
2553.3507151
 10
-574.6111684
 20
2553.78147387
 10
-574.54460241
 20
2554.21223264
 10
-574.47896309
 20
2554.63699477
 10
-574.41517712
 20
2555.04976361
 10
-574.35417116
 20
2555.44454253
 10
-574.2968719
 20
2555.81533488
 10
-574.244206
 20
2556.15614403
 10
-574.19710014
 20
2556.46097332
 10
-574.15648098
 20
2556.72382612
 10
-574.12327521
 20
2556.93870578
 10
-574.09840949
 20
2557.09961567
 10
-574.0828105
 20
2557.20055914
 10
-574.07740491
 20
2557.23553955
 10
-574.46708948
 20
2557.46394639
 10
-574.86401442
 20
2557.68565169
 10
-575.26839878
 20
2557.90038714
 10
-575.68046161
 20
2558.10788444
 97
        1
330
152
 75
     0
 76
     2
 47
0.775229
 98
        1
 10
0.0
 20
0.0
  0
LWPOLYLINE
  5
154
102
{ACAD_REACTORS
330
155
102
}
100
AcDbEntity
  8
DETAIL_1
 62
    28
  6
CONTINUOUS
370
    -3
100
AcDbPolyline
 90
      336
 70
     1
 43
0.0
 10
-534.45725096
 20
2556.72382612
 10
-534.42404519
 20
2556.93870578
 10
-534.39917947
 20
2557.09961567
 10
-534.38358048
 20
2557.20055914
 10
-534.37817489
 20
2557.23553955
 10
-534.76785946
 20
2557.46394639
 10
-535.1647844
 20
2557.68565169
 10
-535.56916876
 20
2557.90038714
 10
-535.98123159
 20
2558.10788444
 10
-536.40119192
 20
2558.3078753
 10
-536.82926881
 20
2558.50009142
 10
-537.2656813
 20
2558.68426449
 10
-537.71064843
 20
2558.86012621
 10
-538.16438925
 20
2559.02740829
 10
-538.62712281
 20
2559.18584244
 10
-539.09906815
 20
2559.33516033
 10
-539.58044431
 20
2559.47509369
 10
-540.07147035
 20
2559.60537421
 10
-540.5723653
 20
2559.72573358
 10
-541.08334821
 20
2559.83590352
 10
-541.60463813
 20
2559.93561572
 10
-542.1364541
 20
2560.02460188
 10
-542.67901516
 20
2560.1025937
 10
-543.23254037
 20
2560.16932288
 10
-543.79724877
 20
2560.22452112
 10
-544.3733594
 20
2560.26792013
 10
-544.96109131
 20
2560.2992516
 10
-545.56066354
 20
2560.31824724
 10
-546.17229514
 20
2560.32463874
 10
-547.62223757
 20
2560.28253428
 10
-549.02253519
 20
2560.15745549
 10
-550.37211629
 20
2559.95125423
 10
-551.66990915
 20
2559.66578235
 10
-552.91484207
 20
2559.30289171
 10
-554.10584333
 20
2558.86443418
 10
-555.24184122
 20
2558.35226162
 10
-556.32176402
 20
2557.76822589
 10
-557.34454002
 20
2557.11417884
 10
-558.30909751
 20
2556.39197234
 10
-559.21436478
 20
2555.60345824
 10
-560.05927011
 20
2554.75048842
 10
-560.84274179
 20
2553.83491472
 10
-561.5637081
 20
2552.85858902
 10
-562.22109735
 20
2551.82336316
 10
-562.8138378
 20
2550.73108901
 10
-563.34085775
 20
2549.58361844
 10
-563.80108549
 20
2548.38280329
 10
-564.1934493
 20
2547.13049544
 10
-564.51687747
 20
2545.82854673
 10
-564.77029829
 20
2544.47880904
 10
-564.95264004
 20
2543.08313423
 10
-565.06283102
 20
2541.64337414
 10
-565.0997995
 20
2540.16138065
 10
-565.06478407
 20
2538.68664222
 10
-564.96007883
 20
2537.25409016
 10
-564.7861954
 20
2535.86555308
 10
-564.54364538
 20
2534.52285958
 10
-564.23294035
 20
2533.22783823
 10
-563.85459193
 20
2531.98231764
 10
-563.40911171
 20
2530.78812641
 10
-562.8970113
 20
2529.64709312
 10
-562.31880229
 20
2528.56104638
 10
-561.67499628
 20
2527.53181477
 10
-560.96610489
 20
2526.56122689
 10
-560.1926397
 20
2525.65111134
 10
-559.35511231
 20
2524.80329671
 10
-558.45403434
 20
2524.0196116
 10
-557.48991737
 20
2523.30188459
 10
-556.46327302
 20
2522.65194429
 10
-555.37461287
 20
2522.07161929
 10
-554.22444853
 20
2521.56273818
 10
-553.0132916
 20
2521.12712956
 10
-551.74165369
 20
2520.76662202
 10
-550.41004638
 20
2520.48304416
 10
-549.01898129
 20
2520.27822457
 10
-547.56897001
 20
2520.15399185
 10
-546.06052415
 20
2520.11217459
 10
-545.41673535
 20
2520.12030921
 10
-544.77736161
 20
2520.14448537
 10
-544.14271924
 20
2520.1843615
 10
-543.51312457
 20
2520.23959605
 10
-542.88889391
 20
2520.30984744
 10
-542.27034358
 20
2520.39477413
 10
-541.65778989
 20
2520.49403454
 10
-541.05154915
 20
2520.60728712
 10
-540.45193769
 20
2520.73419029
 10
-539.85927182
 20
2520.87440251
 10
-539.27386786
 20
2521.0275822
 10
-538.69604211
 20
2521.19338782
 10
-538.12611091
 20
2521.37147778
 10
-537.56439056
 20
2521.56151054
 10
-537.01119739
 20
2521.76314453
 10
-536.4668477
 20
2521.97603818
 10
-535.93165781
 20
2522.19984994
 10
-535.40594405
 20
2522.43423824
 10
-534.89002272
 20
2522.67886153
 10
-534.38421014
 20
2522.93337823
 10
-533.88882263
 20
2523.19744679
 10
-533.4041765
 20
2523.47072565
 10
-532.93058808
 20
2523.75287324
 10
-532.46837367
 20
2524.043548
 10
-532.46837367
 20
2524.13711208
 10
-532.46837367
 20
2524.40711129
 10
-532.46837367
 20
2524.83750605
 10
-532.46837367
 20
2525.41225683
 10
-532.46837367
 20
2526.11532405
 10
-532.46837367
 20
2526.93066818
 10
-532.46837367
 20
2527.84224964
 10
-532.46837367
 20
2528.83402888
 10
-532.46837367
 20
2529.88996636
 10
-532.46837367
 20
2530.9940225
 10
-532.46837367
 20
2532.13015775
 10
-532.46837367
 20
2533.28233256
 10
-532.46837367
 20
2534.43450737
 10
-532.46837367
 20
2535.57064262
 10
-532.46837367
 20
2536.67469876
 10
-532.46837367
 20
2537.73063623
 10
-532.46837367
 20
2538.72241548
 10
-532.46837367
 20
2539.63399694
 10
-532.46837367
 20
2540.44934106
 10
-532.46837367
 20
2541.15240829
 10
-532.46837367
 20
2541.72715907
 10
-532.46837367
 20
2542.15755383
 10
-532.46837367
 20
2542.42755304
 10
-532.46837367
 20
2542.52111712
 10
-532.54715323
 20
2542.52111712
 10
-532.77448852
 20
2542.52111712
 10
-533.13687449
 20
2542.52111712
 10
-533.62080606
 20
2542.52111712
 10
-534.21277816
 20
2542.52111712
 10
-534.89928573
 20
2542.52111712
 10
-535.66682371
 20
2542.52111712
 10
-536.50188702
 20
2542.52111712
 10
-537.39097059
 20
2542.52111712
 10
-538.32056937
 20
2542.52111712
 10
-539.27717828
 20
2542.52111712
 10
-540.24729226
 20
2542.52111712
 10
-541.21740624
 20
2542.52111712
 10
-542.17401516
 20
2542.52111712
 10
-543.10361394
 20
2542.52111712
 10
-543.99269751
 20
2542.52111712
 10
-544.82776082
 20
2542.52111712
 10
-545.5952988
 20
2542.52111712
 10
-546.28180637
 20
2542.52111712
 10
-546.87377847
 20
2542.52111712
 10
-547.35771004
 20
2542.52111712
 10
-547.720096
 20
2542.52111712
 10
-547.9474313
 20
2542.52111712
 10
-548.02621086
 20
2542.52111712
 10
-548.02166
 20
2542.49096478
 10
-548.00852751
 20
2542.40395374
 10
-547.98759355
 20
2542.26525297
 10
-547.95963827
 20
2542.08003146
 10
-547.9254418
 20
2541.85345816
 10
-547.8857843
 20
2541.59070205
 10
-547.84144591
 20
2541.29693211
 10
-547.79320679
 20
2540.97731731
 10
-547.74184707
 20
2540.63702661
 10
-547.68814692
 20
2540.281229
 10
-547.63288646
 20
2539.91509344
 10
-547.57684587
 20
2539.54378892
 10
-547.52080527
 20
2539.17248439
 10
-547.46554481
 20
2538.80634883
 10
-547.41184466
 20
2538.45055122
 10
-547.36048494
 20
2538.11026052
 10
-547.31224582
 20
2537.79064572
 10
-547.26790743
 20
2537.49687578
 10
-547.22824993
 20
2537.23411967
 10
-547.19405347
 20
2537.00754637
 10
-547.16609818
 20
2536.82232486
 10
-547.14516422
 20
2536.68362409
 10
-547.13203173
 20
2536.59661306
 10
-547.12748087
 20
2536.56646072
 10
-547.08766662
 20
2536.56646072
 10
-546.97277405
 20
2536.56646072
 10
-546.78962847
 20
2536.56646072
 10
-546.54505518
 20
2536.56646072
 10
-546.24587949
 20
2536.56646072
 10
-545.89892668
 20
2536.56646072
 10
-545.51102207
 20
2536.56646072
 10
-545.08899095
 20
2536.56646072
 10
-544.63965863
 20
2536.56646072
 10
-544.16985041
 20
2536.56646072
 10
-543.68639158
 20
2536.56646072
 10
-543.19610746
 20
2536.56646072
 10
-542.70582333
 20
2536.56646072
 10
-542.2223645
 20
2536.56646072
 10
-541.75255628
 20
2536.56646072
 10
-541.30322396
 20
2536.56646072
 10
-540.88119284
 20
2536.56646072
 10
-540.49328823
 20
2536.56646072
 10
-540.14633543
 20
2536.56646072
 10
-539.84715973
 20
2536.56646072
 10
-539.60258644
 20
2536.56646072
 10
-539.41944086
 20
2536.56646072
 10
-539.3045483
 20
2536.56646072
 10
-539.26473404
 20
2536.56646072
 10
-539.26473404
 20
2536.5229561
 10
-539.26473404
 20
2536.39741422
 10
-539.26473404
 20
2536.19729301
 10
-539.26473404
 20
2535.9300504
 10
-539.26473404
 20
2535.60314432
 10
-539.26473404
 20
2535.2240327
 10
-539.26473404
 20
2534.80017349
 10
-539.26473404
 20
2534.3390246
 10
-539.26473404
 20
2533.84804399
 10
-539.26473404
 20
2533.33468957
 10
-539.26473404
 20
2532.80641929
 10
-539.26473404
 20
2532.27069107
 10
-539.26473404
 20
2531.73496285
 10
-539.26473404
 20
2531.20669257
 10
-539.26473404
 20
2530.69333815
 10
-539.26473404
 20
2530.20235753
 10
-539.26473404
 20
2529.74120865
 10
-539.26473404
 20
2529.31734944
 10
-539.26473404
 20
2528.93823782
 10
-539.26473404
 20
2528.61133174
 10
-539.26473404
 20
2528.34408913
 10
-539.26473404
 20
2528.14396791
 10
-539.26473404
 20
2528.01842603
 10
-539.26473404
 20
2527.97492142
 10
-539.5035103
 20
2527.85082062
 10
-539.74261699
 20
2527.7314606
 10
-539.9823964
 20
2527.61688938
 10
-540.22319085
 20
2527.50715498
 10
-540.46534264
 20
2527.40230541
 10
-540.70919407
 20
2527.30238869
 10
-540.95508745
 20
2527.20745283
 10
-541.20336507
 20
2527.11754586
 10
-541.45436926
 20
2527.03271578
 10
-541.7084423
 20
2526.95301063
 10
-541.96592651
 20
2526.8784784
 10
-542.22716419
 20
2526.80916713
 10
-542.49249765
 20
2526.74512482
 10
-542.76226918
 20
2526.68639949
 10
-543.0368211
 20
2526.63303916
 10
-543.31649571
 20
2526.58509185
 10
-543.60163531
 20
2526.54260557
 10
-543.89258221
 20
2526.50562835
 10
-544.18967871
 20
2526.47420818
 10
-544.49326711
 20
2526.4483931
 10
-544.80368973
 20
2526.42823112
 10
-545.12128886
 20
2526.41377026
 10
-545.44640682
 20
2526.40505853
 10
-545.7793859
 20
2526.40214395
 10
-546.73505758
 20
2526.43061637
 10
-547.65034078
 20
2526.51525347
 10
-548.52521076
 20
2526.65488503
 10
-549.35964275
 20
2526.84834083
 10
-550.15361202
 20
2527.09445065
 10
-550.90709381
 20
2527.39204427
 10
-551.62006337
 20
2527.73995147
 10
-552.29249594
 20
2528.13700203
 10
-552.92436679
 20
2528.58202571
 10
-553.51565114
 20
2529.07385232
 10
-554.06632427
 20
2529.61131161
 10
-554.57636141
 20
2530.19323337
 10
-555.04573781
 20
2530.81844738
 10
-555.47442873
 20
2531.48578343
 10
-555.86240941
 20
2532.19407127
 10
-556.2096551
 20
2532.9421407
 10
-556.51614105
 20
2533.7288215
 10
-556.78184251
 20
2534.55294344
 10
-557.00673473
 20
2535.4133363
 10
-557.19079295
 20
2536.30882986
 10
-557.33399243
 20
2537.23825389
 10
-557.43630842
 20
2538.20043819
 10
-557.49771617
 20
2539.19421252
 10
-557.51819092
 20
2540.21840666
 10
-557.49830128
 20
2541.23583379
 10
-557.43864887
 20
2542.22340469
 10
-557.33925843
 20
2543.17992462
 10
-557.20015472
 20
2544.10419887
 10
-557.02136249
 20
2544.99503271
 10
-556.80290649
 20
2545.85123141
 10
-556.54481147
 20
2546.67160024
 10
-556.24710218
 20
2547.4549445
 10
-555.90980337
 20
2548.20006944
 10
-555.5329398
 20
2548.90578035
 10
-555.1165362
 20
2549.5708825
 10
-554.66061735
 20
2550.19418117
 10
-554.16520797
 20
2550.77448163
 10
-553.63033284
 20
2551.31058915
 10
-553.05601669
 20
2551.80130902
 10
-552.44228427
 20
2552.2454465
 10
-551.78916035
 20
2552.64180688
 10
-551.09666967
 20
2552.98919542
 10
-550.36483697
 20
2553.28641741
 10
-549.59368702
 20
2553.53227811
 10
-548.78324456
 20
2553.72558281
 10
-547.93353434
 20
2553.86513678
 10
-547.04458112
 20
2553.94974529
 10
-546.11640964
 20
2553.97821362
 10
-545.58693952
 20
2553.97009929
 10
-545.06556343
 20
2553.94606521
 10
-544.55218385
 20
2553.90657469
 10
-544.04670326
 20
2553.85209109
 10
-543.54902415
 20
2553.78307773
 10
-543.059049
 20
2553.69999795
 10
-542.57668028
 20
2553.6033151
 10
-542.10182049
 20
2553.4934925
 10
-541.63437209
 20
2553.37099349
 10
-541.17423758
 20
2553.23628142
 10
-540.72131944
 20
2553.0898196
 10
-540.27552014
 20
2552.93207139
 10
-539.83674217
 20
2552.76350012
 10
-539.40488801
 20
2552.58456912
 10
-538.97986014
 20
2552.39574173
 10
-538.56156104
 20
2552.19748129
 10
-538.1498932
 20
2551.99025113
 10
-537.74475909
 20
2551.77451459
 10
-537.3460612
 20
2551.550735
 10
-536.95370201
 20
2551.31937571
 10
-536.567584
 20
2551.08090005
 10
-536.18760966
 20
2550.83577135
 10
-535.81368145
 20
2550.58445295
 10
-535.44570187
 20
2550.32740819
 10
-535.44029628
 20
2550.36238861
 10
-535.42469729
 20
2550.46333208
 10
-535.39983157
 20
2550.62424196
 10
-535.3666258
 20
2550.83912163
 10
-535.32600664
 20
2551.10197443
 10
-535.27890078
 20
2551.40680372
 10
-535.22623488
 20
2551.74761286
 10
-535.16893562
 20
2552.11840521
 10
-535.10792966
 20
2552.51318413
 10
-535.04414369
 20
2552.92595298
 10
-534.97850437
 20
2553.3507151
 10
-534.91193838
 20
2553.78147387
 10
-534.84537239
 20
2554.21223264
 10
-534.77973307
 20
2554.63699477
 10
-534.7159471
 20
2555.04976361
 10
-534.65494114
 20
2555.44454253
 10
-534.59764188
 20
2555.81533488
 10
-534.54497598
 20
2556.15614403
 10
-534.49787011
 20
2556.46097332
  0
HATCH
  5
155
100
AcDbEntity
  8
DETAIL_1
 62
    28
  6
CONTINUOUS
100
AcDbHatch
 10
0.0
 20
0.0
 30
0.0
210
0.0
220
0.0
230
1.0
  2
SOLID
 70
     1
 71
     1
 91
        1
 92
        7
 72
     0
 73
     1
 93
      336
 10
-534.45725096
 20
2556.72382612
 10
-534.42404519
 20
2556.93870578
 10
-534.39917947
 20
2557.09961567
 10
-534.38358048
 20
2557.20055914
 10
-534.37817489
 20
2557.23553955
 10
-534.76785946
 20
2557.46394639
 10
-535.1647844
 20
2557.68565169
 10
-535.56916876
 20
2557.90038714
 10
-535.98123159
 20
2558.10788444
 10
-536.40119192
 20
2558.3078753
 10
-536.82926881
 20
2558.50009142
 10
-537.2656813
 20
2558.68426449
 10
-537.71064843
 20
2558.86012621
 10
-538.16438925
 20
2559.02740829
 10
-538.62712281
 20
2559.18584244
 10
-539.09906815
 20
2559.33516033
 10
-539.58044431
 20
2559.47509369
 10
-540.07147035
 20
2559.60537421
 10
-540.5723653
 20
2559.72573358
 10
-541.08334821
 20
2559.83590352
 10
-541.60463813
 20
2559.93561572
 10
-542.1364541
 20
2560.02460188
 10
-542.67901516
 20
2560.1025937
 10
-543.23254037
 20
2560.16932288
 10
-543.79724877
 20
2560.22452112
 10
-544.3733594
 20
2560.26792013
 10
-544.96109131
 20
2560.2992516
 10
-545.56066354
 20
2560.31824724
 10
-546.17229514
 20
2560.32463874
 10
-547.62223757
 20
2560.28253428
 10
-549.02253519
 20
2560.15745549
 10
-550.37211629
 20
2559.95125423
 10
-551.66990915
 20
2559.66578235
 10
-552.91484207
 20
2559.30289171
 10
-554.10584333
 20
2558.86443418
 10
-555.24184122
 20
2558.35226162
 10
-556.32176402
 20
2557.76822589
 10
-557.34454002
 20
2557.11417884
 10
-558.30909751
 20
2556.39197234
 10
-559.21436478
 20
2555.60345824
 10
-560.05927011
 20
2554.75048842
 10
-560.84274179
 20
2553.83491472
 10
-561.5637081
 20
2552.85858902
 10
-562.22109735
 20
2551.82336316
 10
-562.8138378
 20
2550.73108901
 10
-563.34085775
 20
2549.58361844
 10
-563.80108549
 20
2548.38280329
 10
-564.1934493
 20
2547.13049544
 10
-564.51687747
 20
2545.82854673
 10
-564.77029829
 20
2544.47880904
 10
-564.95264004
 20
2543.08313423
 10
-565.06283102
 20
2541.64337414
 10
-565.0997995
 20
2540.16138065
 10
-565.06478407
 20
2538.68664222
 10
-564.96007883
 20
2537.25409016
 10
-564.7861954
 20
2535.86555308
 10
-564.54364538
 20
2534.52285958
 10
-564.23294035
 20
2533.22783823
 10
-563.85459193
 20
2531.98231764
 10
-563.40911171
 20
2530.78812641
 10
-562.8970113
 20
2529.64709312
 10
-562.31880229
 20
2528.56104638
 10
-561.67499628
 20
2527.53181477
 10
-560.96610489
 20
2526.56122689
 10
-560.1926397
 20
2525.65111134
 10
-559.35511231
 20
2524.80329671
 10
-558.45403434
 20
2524.0196116
 10
-557.48991737
 20
2523.30188459
 10
-556.46327302
 20
2522.65194429
 10
-555.37461287
 20
2522.07161929
 10
-554.22444853
 20
2521.56273818
 10
-553.0132916
 20
2521.12712956
 10
-551.74165369
 20
2520.76662202
 10
-550.41004638
 20
2520.48304416
 10
-549.01898129
 20
2520.27822457
 10
-547.56897001
 20
2520.15399185
 10
-546.06052415
 20
2520.11217459
 10
-545.41673535
 20
2520.12030921
 10
-544.77736161
 20
2520.14448537
 10
-544.14271924
 20
2520.1843615
 10
-543.51312457
 20
2520.23959605
 10
-542.88889391
 20
2520.30984744
 10
-542.27034358
 20
2520.39477413
 10
-541.65778989
 20
2520.49403454
 10
-541.05154915
 20
2520.60728712
 10
-540.45193769
 20
2520.73419029
 10
-539.85927182
 20
2520.87440251
 10
-539.27386786
 20
2521.0275822
 10
-538.69604211
 20
2521.19338782
 10
-538.12611091
 20
2521.37147778
 10
-537.56439056
 20
2521.56151054
 10
-537.01119739
 20
2521.76314453
 10
-536.4668477
 20
2521.97603818
 10
-535.93165781
 20
2522.19984994
 10
-535.40594405
 20
2522.43423824
 10
-534.89002272
 20
2522.67886153
 10
-534.38421014
 20
2522.93337823
 10
-533.88882263
 20
2523.19744679
 10
-533.4041765
 20
2523.47072565
 10
-532.93058808
 20
2523.75287324
 10
-532.46837367
 20
2524.043548
 10
-532.46837367
 20
2524.13711208
 10
-532.46837367
 20
2524.40711129
 10
-532.46837367
 20
2524.83750605
 10
-532.46837367
 20
2525.41225683
 10
-532.46837367
 20
2526.11532405
 10
-532.46837367
 20
2526.93066818
 10
-532.46837367
 20
2527.84224964
 10
-532.46837367
 20
2528.83402888
 10
-532.46837367
 20
2529.88996636
 10
-532.46837367
 20
2530.9940225
 10
-532.46837367
 20
2532.13015775
 10
-532.46837367
 20
2533.28233256
 10
-532.46837367
 20
2534.43450737
 10
-532.46837367
 20
2535.57064262
 10
-532.46837367
 20
2536.67469876
 10
-532.46837367
 20
2537.73063623
 10
-532.46837367
 20
2538.72241548
 10
-532.46837367
 20
2539.63399694
 10
-532.46837367
 20
2540.44934106
 10
-532.46837367
 20
2541.15240829
 10
-532.46837367
 20
2541.72715907
 10
-532.46837367
 20
2542.15755383
 10
-532.46837367
 20
2542.42755304
 10
-532.46837367
 20
2542.52111712
 10
-532.54715323
 20
2542.52111712
 10
-532.77448852
 20
2542.52111712
 10
-533.13687449
 20
2542.52111712
 10
-533.62080606
 20
2542.52111712
 10
-534.21277816
 20
2542.52111712
 10
-534.89928573
 20
2542.52111712
 10
-535.66682371
 20
2542.52111712
 10
-536.50188702
 20
2542.52111712
 10
-537.39097059
 20
2542.52111712
 10
-538.32056937
 20
2542.52111712
 10
-539.27717828
 20
2542.52111712
 10
-540.24729226
 20
2542.52111712
 10
-541.21740624
 20
2542.52111712
 10
-542.17401516
 20
2542.52111712
 10
-543.10361394
 20
2542.52111712
 10
-543.99269751
 20
2542.52111712
 10
-544.82776082
 20
2542.52111712
 10
-545.5952988
 20
2542.52111712
 10
-546.28180637
 20
2542.52111712
 10
-546.87377847
 20
2542.52111712
 10
-547.35771004
 20
2542.52111712
 10
-547.720096
 20
2542.52111712
 10
-547.9474313
 20
2542.52111712
 10
-548.02621086
 20
2542.52111712
 10
-548.02166
 20
2542.49096478
 10
-548.00852751
 20
2542.40395374
 10
-547.98759355
 20
2542.26525297
 10
-547.95963827
 20
2542.08003146
 10
-547.9254418
 20
2541.85345816
 10
-547.8857843
 20
2541.59070205
 10
-547.84144591
 20
2541.29693211
 10
-547.79320679
 20
2540.97731731
 10
-547.74184707
 20
2540.63702661
 10
-547.68814692
 20
2540.281229
 10
-547.63288646
 20
2539.91509344
 10
-547.57684587
 20
2539.54378892
 10
-547.52080527
 20
2539.17248439
 10
-547.46554481
 20
2538.80634883
 10
-547.41184466
 20
2538.45055122
 10
-547.36048494
 20
2538.11026052
 10
-547.31224582
 20
2537.79064572
 10
-547.26790743
 20
2537.49687578
 10
-547.22824993
 20
2537.23411967
 10
-547.19405347
 20
2537.00754637
 10
-547.16609818
 20
2536.82232486
 10
-547.14516422
 20
2536.68362409
 10
-547.13203173
 20
2536.59661306
 10
-547.12748087
 20
2536.56646072
 10
-547.08766662
 20
2536.56646072
 10
-546.97277405
 20
2536.56646072
 10
-546.78962847
 20
2536.56646072
 10
-546.54505518
 20
2536.56646072
 10
-546.24587949
 20
2536.56646072
 10
-545.89892668
 20
2536.56646072
 10
-545.51102207
 20
2536.56646072
 10
-545.08899095
 20
2536.56646072
 10
-544.63965863
 20
2536.56646072
 10
-544.16985041
 20
2536.56646072
 10
-543.68639158
 20
2536.56646072
 10
-543.19610746
 20
2536.56646072
 10
-542.70582333
 20
2536.56646072
 10
-542.2223645
 20
2536.56646072
 10
-541.75255628
 20
2536.56646072
 10
-541.30322396
 20
2536.56646072
 10
-540.88119284
 20
2536.56646072
 10
-540.49328823
 20
2536.56646072
 10
-540.14633543
 20
2536.56646072
 10
-539.84715973
 20
2536.56646072
 10
-539.60258644
 20
2536.56646072
 10
-539.41944086
 20
2536.56646072
 10
-539.3045483
 20
2536.56646072
 10
-539.26473404
 20
2536.56646072
 10
-539.26473404
 20
2536.5229561
 10
-539.26473404
 20
2536.39741422
 10
-539.26473404
 20
2536.19729301
 10
-539.26473404
 20
2535.9300504
 10
-539.26473404
 20
2535.60314432
 10
-539.26473404
 20
2535.2240327
 10
-539.26473404
 20
2534.80017349
 10
-539.26473404
 20
2534.3390246
 10
-539.26473404
 20
2533.84804399
 10
-539.26473404
 20
2533.33468957
 10
-539.26473404
 20
2532.80641929
 10
-539.26473404
 20
2532.27069107
 10
-539.26473404
 20
2531.73496285
 10
-539.26473404
 20
2531.20669257
 10
-539.26473404
 20
2530.69333815
 10
-539.26473404
 20
2530.20235753
 10
-539.26473404
 20
2529.74120865
 10
-539.26473404
 20
2529.31734944
 10
-539.26473404
 20
2528.93823782
 10
-539.26473404
 20
2528.61133174
 10
-539.26473404
 20
2528.34408913
 10
-539.26473404
 20
2528.14396791
 10
-539.26473404
 20
2528.01842603
 10
-539.26473404
 20
2527.97492142
 10
-539.5035103
 20
2527.85082062
 10
-539.74261699
 20
2527.7314606
 10
-539.9823964
 20
2527.61688938
 10
-540.22319085
 20
2527.50715498
 10
-540.46534264
 20
2527.40230541
 10
-540.70919407
 20
2527.30238869
 10
-540.95508745
 20
2527.20745283
 10
-541.20336507
 20
2527.11754586
 10
-541.45436926
 20
2527.03271578
 10
-541.7084423
 20
2526.95301063
 10
-541.96592651
 20
2526.8784784
 10
-542.22716419
 20
2526.80916713
 10
-542.49249765
 20
2526.74512482
 10
-542.76226918
 20
2526.68639949
 10
-543.0368211
 20
2526.63303916
 10
-543.31649571
 20
2526.58509185
 10
-543.60163531
 20
2526.54260557
 10
-543.89258221
 20
2526.50562835
 10
-544.18967871
 20
2526.47420818
 10
-544.49326711
 20
2526.4483931
 10
-544.80368973
 20
2526.42823112
 10
-545.12128886
 20
2526.41377026
 10
-545.44640682
 20
2526.40505853
 10
-545.7793859
 20
2526.40214395
 10
-546.73505758
 20
2526.43061637
 10
-547.65034078
 20
2526.51525347
 10
-548.52521076
 20
2526.65488503
 10
-549.35964275
 20
2526.84834083
 10
-550.15361202
 20
2527.09445065
 10
-550.90709381
 20
2527.39204427
 10
-551.62006337
 20
2527.73995147
 10
-552.29249594
 20
2528.13700203
 10
-552.92436679
 20
2528.58202571
 10
-553.51565114
 20
2529.07385232
 10
-554.06632427
 20
2529.61131161
 10
-554.57636141
 20
2530.19323337
 10
-555.04573781
 20
2530.81844738
 10
-555.47442873
 20
2531.48578343
 10
-555.86240941
 20
2532.19407127
 10
-556.2096551
 20
2532.9421407
 10
-556.51614105
 20
2533.7288215
 10
-556.78184251
 20
2534.55294344
 10
-557.00673473
 20
2535.4133363
 10
-557.19079295
 20
2536.30882986
 10
-557.33399243
 20
2537.23825389
 10
-557.43630842
 20
2538.20043819
 10
-557.49771617
 20
2539.19421252
 10
-557.51819092
 20
2540.21840666
 10
-557.49830128
 20
2541.23583379
 10
-557.43864887
 20
2542.22340469
 10
-557.33925843
 20
2543.17992462
 10
-557.20015472
 20
2544.10419887
 10
-557.02136249
 20
2544.99503271
 10
-556.80290649
 20
2545.85123141
 10
-556.54481147
 20
2546.67160024
 10
-556.24710218
 20
2547.4549445
 10
-555.90980337
 20
2548.20006944
 10
-555.5329398
 20
2548.90578035
 10
-555.1165362
 20
2549.5708825
 10
-554.66061735
 20
2550.19418117
 10
-554.16520797
 20
2550.77448163
 10
-553.63033284
 20
2551.31058915
 10
-553.05601669
 20
2551.80130902
 10
-552.44228427
 20
2552.2454465
 10
-551.78916035
 20
2552.64180688
 10
-551.09666967
 20
2552.98919542
 10
-550.36483697
 20
2553.28641741
 10
-549.59368702
 20
2553.53227811
 10
-548.78324456
 20
2553.72558281
 10
-547.93353434
 20
2553.86513678
 10
-547.04458112
 20
2553.94974529
 10
-546.11640964
 20
2553.97821362
 10
-545.58693952
 20
2553.97009929
 10
-545.06556343
 20
2553.94606521
 10
-544.55218385
 20
2553.90657469
 10
-544.04670326
 20
2553.85209109
 10
-543.54902415
 20
2553.78307773
 10
-543.059049
 20
2553.69999795
 10
-542.57668028
 20
2553.6033151
 10
-542.10182049
 20
2553.4934925
 10
-541.63437209
 20
2553.37099349
 10
-541.17423758
 20
2553.23628142
 10
-540.72131944
 20
2553.0898196
 10
-540.27552014
 20
2552.93207139
 10
-539.83674217
 20
2552.76350012
 10
-539.40488801
 20
2552.58456912
 10
-538.97986014
 20
2552.39574173
 10
-538.56156104
 20
2552.19748129
 10
-538.1498932
 20
2551.99025113
 10
-537.74475909
 20
2551.77451459
 10
-537.3460612
 20
2551.550735
 10
-536.95370201
 20
2551.31937571
 10
-536.567584
 20
2551.08090005
 10
-536.18760966
 20
2550.83577135
 10
-535.81368145
 20
2550.58445295
 10
-535.44570187
 20
2550.32740819
 10
-535.44029628
 20
2550.36238861
 10
-535.42469729
 20
2550.46333208
 10
-535.39983157
 20
2550.62424196
 10
-535.3666258
 20
2550.83912163
 10
-535.32600664
 20
2551.10197443
 10
-535.27890078
 20
2551.40680372
 10
-535.22623488
 20
2551.74761286
 10
-535.16893562
 20
2552.11840521
 10
-535.10792966
 20
2552.51318413
 10
-535.04414369
 20
2552.92595298
 10
-534.97850437
 20
2553.3507151
 10
-534.91193838
 20
2553.78147387
 10
-534.84537239
 20
2554.21223264
 10
-534.77973307
 20
2554.63699477
 10
-534.7159471
 20
2555.04976361
 10
-534.65494114
 20
2555.44454253
 10
-534.59764188
 20
2555.81533488
 10
-534.54497598
 20
2556.15614403
 10
-534.49787011
 20
2556.46097332
 97
        1
330
154
 75
     0
 76
     2
 47
0.775229
 98
        1
 10
0.0
 20
0.0
  0
LWPOLYLINE
  5
156
102
{ACAD_REACTORS
330
157
102
}
100
AcDbEntity
  8
DETAIL_1
 62
    28
  6
CONTINUOUS
370
    -3
100
AcDbPolyline
 90
       12
 70
     1
 43
0.0
 10
-478.10034202
 20
2559.59470576
 10
-485.56960936
 20
2559.59470576
 10
-485.56960936
 20
2544.31800682
 10
-502.02560627
 20
2544.31800682
 10
-502.02560627
 20
2559.59470576
 10
-509.49544386
 20
2559.59470576
 10
-509.49544386
 20
2520.84096705
 10
-502.02560627
 20
2520.84096705
 10
-502.02560627
 20
2537.69101372
 10
-485.56960936
 20
2537.69101372
 10
-485.56960936
 20
2520.84096705
 10
-478.10034202
 20
2520.84096705
  0
HATCH
  5
157
100
AcDbEntity
  8
DETAIL_1
 62
    28
  6
CONTINUOUS
100
AcDbHatch
 10
0.0
 20
0.0
 30
0.0
210
0.0
220
0.0
230
1.0
  2
SOLID
 70
     1
 71
     1
 91
        1
 92
        7
 72
     0
 73
     1
 93
       12
 10
-478.10034202
 20
2559.59470576
 10
-485.56960936
 20
2559.59470576
 10
-485.56960936
 20
2544.31800682
 10
-502.02560627
 20
2544.31800682
 10
-502.02560627
 20
2559.59470576
 10
-509.49544386
 20
2559.59470576
 10
-509.49544386
 20
2520.84096705
 10
-502.02560627
 20
2520.84096705
 10
-502.02560627
 20
2537.69101372
 10
-485.56960936
 20
2537.69101372
 10
-485.56960936
 20
2520.84096705
 10
-478.10034202
 20
2520.84096705
 97
        1
330
156
 75
     0
 76
     2
 47
0.775229
 98
        1
 10
0.0
 20
0.0
  0
LWPOLYLINE
  5
158
102
{ACAD_REACTORS
330
159
102
}
100
AcDbEntity
  8
DETAIL_1
 62
    42
  6
CONTINUOUS
370
    -3
100
AcDbPolyline
 90
        4
 70
     1
 43
0.0
 10
-342.00604843
 20
2574.70888055
 10
-345.32040038
 20
2574.14717431
 10
-345.32040038
 20
2496.96645596
 10
-342.00604843
 20
2497.52759194
  0
HATCH
  5
159
100
AcDbEntity
  8
DETAIL_1
 62
    42
  6
CONTINUOUS
100
AcDbHatch
 10
0.0
 20
0.0
 30
0.0
210
0.0
220
0.0
230
1.0
  2
SOLID
 70
     1
 71
     1
 91
        1
 92
        7
 72
     0
 73
     1
 93
        4
 10
-342.00604843
 20
2574.70888055
 10
-345.32040038
 20
2574.14717431
 10
-345.32040038
 20
2496.96645596
 10
-342.00604843
 20
2497.52759194
 97
        1
330
158
 75
     0
 76
     2
 47
0.775229
 98
        1
 10
0.0
 20
0.0
  0
LWPOLYLINE
  5
15A
102
{ACAD_REACTORS
330
15B
102
}
100
AcDbEntity
  8
DETAIL_1
 62
    28
  6
CONTINUOUS
370
    -3
100
AcDbPolyline
 90
       11
 70
     1
 43
0.0
 10
-311.05803054
 20
2520.84096705
 10
-314.93351847
 20
2520.84096705
 10
-314.93351847
 20
2559.59470576
 10
-311.05803054
 20
2559.59470576
 10
-311.05803054
 20
2541.95884062
 10
-293.02982642
 20
2559.59470576
 10
-288.08681152
 20
2559.59470576
 10
-306.73317763
 20
2541.50947562
 10
-287.02042505
 20
2521.34735805
 10
-291.28825195
 20
2520.44862807
 10
-311.05803054
 20
2540.83542814
  0
HATCH
  5
15B
100
AcDbEntity
  8
DETAIL_1
 62
    28
  6
CONTINUOUS
100
AcDbHatch
 10
0.0
 20
0.0
 30
0.0
210
0.0
220
0.0
230
1.0
  2
SOLID
 70
     1
 71
     1
 91
        1
 92
        7
 72
     0
 73
     1
 93
       11
 10
-311.05803054
 20
2520.84096705
 10
-314.93351847
 20
2520.84096705
 10
-314.93351847
 20
2559.59470576
 10
-311.05803054
 20
2559.59470576
 10
-311.05803054
 20
2541.95884062
 10
-293.02982642
 20
2559.59470576
 10
-288.08681152
 20
2559.59470576
 10
-306.73317763
 20
2541.50947562
 10
-287.02042505
 20
2521.34735805
 10
-291.28825195
 20
2520.44862807
 10
-311.05803054
 20
2540.83542814
 97
        1
330
15A
 75
     0
 76
     2
 47
0.775229
 98
        1
 10
0.0
 20
0.0
  0
LWPOLYLINE
  5
15C
102
{ACAD_REACTORS
330
15D
102
}
100
AcDbEntity
  8
DETAIL_1
 62
    28
  6
CONTINUOUS
370
    -3
100
AcDbPolyline
 90
        4
 70
     1
 43
0.0
 10
-266.30401462
 20
2569.14257131
 10
-270.91057605
 20
2569.14257131
 10
-270.91057605
 20
2564.14367091
 10
-266.30401462
 20
2564.14367091
  0
HATCH
  5
15D
100
AcDbEntity
  8
DETAIL_1
 62
    28
  6
CONTINUOUS
100
AcDbHatch
 10
0.0
 20
0.0
 30
0.0
210
0.0
220
0.0
230
1.0
  2
SOLID
 70
     1
 71
     1
 91
        1
 92
        7
 72
     0
 73
     1
 93
        4
 10
-266.30401462
 20
2569.14257131
 10
-270.91057605
 20
2569.14257131
 10
-270.91057605
 20
2564.14367091
 10
-266.30401462
 20
2564.14367091
 97
        1
330
15C
 75
     0
 76
     2
 47
0.775229
 98
        1
 10
0.0
 20
0.0
  0
LWPOLYLINE
  5
15E
102
{ACAD_REACTORS
330
15F
102
}
100
AcDbEntity
  8
DETAIL_1
 62
    28
  6
CONTINUOUS
370
    -3
100
AcDbPolyline
 90
        4
 70
     1
 43
0.0
 10
-256.58906285
 20
2569.14257131
 10
-261.25036925
 20
2569.14257131
 10
-261.25036925
 20
2564.14367091
 10
-256.58906285
 20
2564.14367091
  0
HATCH
  5
15F
100
AcDbEntity
  8
DETAIL_1
 62
    28
  6
CONTINUOUS
100
AcDbHatch
 10
0.0
 20
0.0
 30
0.0
210
0.0
220
0.0
230
1.0
  2
SOLID
 70
     1
 71
     1
 91
        1
 92
        7
 72
     0
 73
     1
 93
        4
 10
-256.58906285
 20
2569.14257131
 10
-261.25036925
 20
2569.14257131
 10
-261.25036925
 20
2564.14367091
 10
-256.58906285
 20
2564.14367091
 97
        1
330
15E
 75
     0
 76
     2
 47
0.775229
 98
        1
 10
0.0
 20
0.0
  0
LWPOLYLINE
  5
160
102
{ACAD_REACTORS
330
161
102
}
100
AcDbEntity
  8
DETAIL_1
 62
    28
  6
CONTINUOUS
370
    -3
100
AcDbPolyline
 90
        6
 70
     1
 43
0.0
 10
-234.62606375
 20
2559.59470576
 10
-238.50155168
 20
2559.59470576
 10
-238.50155168
 20
2520.84096705
 10
-219.12525258
 20
2520.84096705
 10
-219.68638856
 20
2524.32411599
 10
-234.62606375
 20
2524.32411599
  0
HATCH
  5
161
100
AcDbEntity
  8
DETAIL_1
 62
    28
  6
CONTINUOUS
100
AcDbHatch
 10
0.0
 20
0.0
 30
0.0
210
0.0
220
0.0
230
1.0
  2
SOLID
 70
     1
 71
     1
 91
        1
 92
        7
 72
     0
 73
     1
 93
        6
 10
-234.62606375
 20
2559.59470576
 10
-238.50155168
 20
2559.59470576
 10
-238.50155168
 20
2520.84096705
 10
-219.12525258
 20
2520.84096705
 10
-219.68638856
 20
2524.32411599
 10
-234.62606375
 20
2524.32411599
 97
        1
330
160
 75
     0
 76
     2
 47
0.775229
 98
        1
 10
0.0
 20
0.0
  0
LWPOLYLINE
  5
162
102
{ACAD_REACTORS
330
163
102
}
100
AcDbEntity
  8
DETAIL_1
 62
    28
  6
CONTINUOUS
370
    -3
100
AcDbPolyline
 90
        4
 70
     1
 43
0.0
 10
-207.32999181
 20
2559.59470576
 10
-211.20433921
 20
2559.59470576
 10
-211.20433921
 20
2520.84096705
 10
-207.32999181
 20
2520.84096705
  0
HATCH
  5
163
100
AcDbEntity
  8
DETAIL_1
 62
    28
  6
CONTINUOUS
100
AcDbHatch
 10
0.0
 20
0.0
 30
0.0
210
0.0
220
0.0
230
1.0
  2
SOLID
 70
     1
 71
     1
 91
        1
 92
        7
 72
     0
 73
     1
 93
        4
 10
-207.32999181
 20
2559.59470576
 10
-211.20433921
 20
2559.59470576
 10
-211.20433921
 20
2520.84096705
 10
-207.32999181
 20
2520.84096705
 97
        1
330
162
 75
     0
 76
     2
 47
0.775229
 98
        1
 10
0.0
 20
0.0
  0
LWPOLYLINE
  5
164
102
{ACAD_REACTORS
330
165
102
}
100
AcDbEntity
  8
DETAIL_1
 62
    28
  6
CONTINUOUS
370
    -3
100
AcDbPolyline
 90
       10
 70
     1
 43
0.0
 10
-192.11431071
 20
2520.84096705
 10
-195.76511614
 20
2520.84096705
 10
-195.76511614
 20
2559.59470576
 10
-192.11431071
 20
2559.59470576
 10
-170.15473318
 20
2527.97492142
 10
-170.15473318
 20
2559.59470576
 10
-166.50392775
 20
2559.59470576
 10
-166.50392775
 20
2520.84096705
 10
-169.48068569
 20
2520.84096705
 10
-192.11431071
 20
2553.47296314
  0
HATCH
  5
165
100
AcDbEntity
  8
DETAIL_1
 62
    28
  6
CONTINUOUS
100
AcDbHatch
 10
0.0
 20
0.0
 30
0.0
210
0.0
220
0.0
230
1.0
  2
SOLID
 70
     1
 71
     1
 91
        1
 92
        7
 72
     0
 73
     1
 93
       10
 10
-192.11431071
 20
2520.84096705
 10
-195.76511614
 20
2520.84096705
 10
-195.76511614
 20
2559.59470576
 10
-192.11431071
 20
2559.59470576
 10
-170.15473318
 20
2527.97492142
 10
-170.15473318
 20
2559.59470576
 10
-166.50392775
 20
2559.59470576
 10
-166.50392775
 20
2520.84096705
 10
-169.48068569
 20
2520.84096705
 10
-192.11431071
 20
2553.47296314
 97
        1
330
164
 75
     0
 76
     2
 47
0.775229
 98
        1
 10
0.0
 20
0.0
  0
LWPOLYLINE
  5
166
102
{ACAD_REACTORS
330
167
102
}
100
AcDbEntity
  8
DETAIL_1
 62
    28
  6
CONTINUOUS
370
    -3
100
AcDbPolyline
 90
      336
 70
     1
 43
0.0
 10
-99.89126811
 20
2543.80283916
 10
-99.70737728
 20
2544.92085099
 10
-99.4725848
 20
2545.99810705
 10
-99.18762279
 20
2547.03319356
 10
-98.85322338
 20
2548.02469675
 10
-98.4701187
 20
2548.97120285
 10
-98.0390409
 20
2549.87129809
 10
-97.56072208
 20
2550.72356871
 10
-97.0358944
 20
2551.52660092
 10
-96.46528997
 20
2552.27898096
 10
-95.84964094
 20
2552.97929507
 10
-95.18967942
 20
2553.62612947
 10
-94.48613755
 20
2554.21807038
 10
-93.73974747
 20
2554.75370405
 10
-92.95124129
 20
2555.2316167
 10
-92.12135116
 20
2555.65039456
 10
-91.25080921
 20
2556.00862387
 10
-90.34034756
 20
2556.30489084
 10
-89.39069834
 20
2556.53778172
 10
-88.4025937
 20
2556.70588272
 10
-87.37676575
 20
2556.80778009
 10
-86.31394663
 20
2556.84206005
 10
-85.76390226
 20
2556.83393236
 10
-85.22314392
 20
2556.80979283
 10
-84.69157212
 20
2556.77000679
 10
-84.16908735
 20
2556.71493956
 10
-83.65559012
 20
2556.64495647
 10
-83.15098093
 20
2556.56042283
 10
-82.65516028
 20
2556.46170396
 10
-82.16802867
 20
2556.3491652
 10
-81.68948661
 20
2556.22317187
 10
-81.21943459
 20
2556.08408928
 10
-80.75777311
 20
2555.93228276
 10
-80.30440269
 20
2555.76811764
 10
-79.85922381
 20
2555.59195923
 10
-79.42213699
 20
2555.40417287
 10
-78.99304271
 20
2555.20512386
 10
-78.57184149
 20
2554.99517754
 10
-78.15843383
 20
2554.77469923
 10
-77.75272022
 20
2554.54405425
 10
-77.35460117
 20
2554.30360792
 10
-76.96397718
 20
2554.05372557
 10
-76.58074876
 20
2553.79477252
 10
-76.20481639
 20
2553.52711409
 10
-75.83608059
 20
2553.25111561
 10
-75.47444185
 20
2552.96714239
 10
-75.47102871
 20
2552.98733539
 10
-75.46117934
 20
2553.04560662
 10
-75.44547887
 20
2553.13849443
 10
-75.42451241
 20
2553.26253714
 10
-75.39886506
 20
2553.41427312
 10
-75.36912193
 20
2553.5902407
 10
-75.33586814
 20
2553.78697822
 10
-75.2996888
 20
2554.00102403
 10
-75.26116901
 20
2554.22891646
 10
-75.2208939
 20
2554.46719387
 10
-75.17944856
 20
2554.7123946
 10
-75.13741811
 20
2554.96105698
 10
-75.09538766
 20
2555.20971936
 10
-75.05394232
 20
2555.45492008
 10
-75.0136672
 20
2555.69319749
 10
-74.97514742
 20
2555.92108992
 10
-74.93896807
 20
2556.13513573
 10
-74.90571429
 20
2556.33187325
 10
-74.87597116
 20
2556.50784083
 10
-74.85032381
 20
2556.65957681
 10
-74.82935734
 20
2556.78361953
 10
-74.81365687
 20
2556.87650733
 10
-74.80380751
 20
2556.93477856
 10
-74.80039437
 20
2556.95497156
 10
-75.17631526
 20
2557.21700841
 10
-75.55998615
 20
2557.4695429
 10
-75.95155356
 20
2557.7124285
 10
-76.35116402
 20
2557.94551871
 10
-76.75896404
 20
2558.16866698
 10
-77.17510016
 20
2558.38172679
 10
-77.5997189
 20
2558.58455163
 10
-78.03296678
 20
2558.77699496
 10
-78.47499033
 20
2558.95891025
 10
-78.92593608
 20
2559.13015099
 10
-79.38595055
 20
2559.29057064
 10
-79.85518026
 20
2559.44002269
 10
-80.33377174
 20
2559.57836061
 10
-80.82187152
 20
2559.70543787
 10
-81.31962613
 20
2559.82110794
 10
-81.82718207
 20
2559.92522431
 10
-82.34468589
 20
2560.01764045
 10
-82.87228411
 20
2560.09820982
 10
-83.41012324
 20
2560.16678591
 10
-83.95834983
 20
2560.2232222
 10
-84.51711038
 20
2560.26737215
 10
-85.08655143
 20
2560.29908924
 10
-85.66681951
 20
2560.31822694
 10
-86.25806113
 20
2560.32463874
 10
-87.59287974
 20
2560.28197071
 10
-88.88653269
 20
2560.1552992
 10
-90.13762998
 20
2559.94662309
 10
-91.3447816
 20
2559.65794127
 10
-92.50659753
 20
2559.29125261
 10
-93.62168778
 20
2558.848556
 10
-94.68866232
 20
2558.33185032
 10
-95.70613116
 20
2557.74313444
 10
-96.67270428
 20
2557.08440725
 10
-97.58699167
 20
2556.35766762
 10
-98.44760333
 20
2555.56491445
 10
-99.25314924
 20
2554.7081466
 10
-100.0022394
 20
2553.78936297
 10
-100.69348379
 20
2552.81056242
 10
-101.32549242
 20
2551.77374384
 10
-101.89687526
 20
2550.68090612
 10
-102.40624231
 20
2549.53404813
 10
-102.85220356
 20
2548.33516875
 10
-103.233369
 20
2547.08626686
 10
-103.54834863
 20
2545.78934135
 10
-103.79575243
 20
2544.44639109
 10
-103.97419039
 20
2543.05941497
 10
-104.08227251
 20
2541.63041186
 10
-104.11860877
 20
2540.16138065
 10
-104.08364857
 20
2538.69947356
 10
-103.97935375
 20
2537.27756983
 10
-103.80660296
 20
2535.89764358
 10
-103.56627486
 20
2534.56166895
 10
-103.2592481
 20
2533.27162005
 10
-102.88640135
 20
2532.02947103
 10
-102.44861325
 20
2530.83719601
 10
-101.94676246
 20
2529.69676912
 10
-101.38172764
 20
2528.61016449
 10
-100.75438744
 20
2527.57935625
 10
-100.06562053
 20
2526.60631853
 10
-99.31630555
 20
2525.69302546
 10
-98.50732117
 20
2524.84145118
 10
-97.63954603
 20
2524.0535698
 10
-96.71385879
 20
2523.33135546
 10
-95.73113812
 20
2522.67678229
 10
-94.69226267
 20
2522.09182442
 10
-93.59811108
 20
2521.57845598
 10
-92.44956203
 20
2521.13865109
 10
-91.24749416
 20
2520.7743839
 10
-89.99278613
 20
2520.48762852
 10
-88.6863166
 20
2520.28035909
 10
-87.32896422
 20
2520.15454973
 10
-85.92160765
 20
2520.11217459
 10
-85.30111453
 20
2520.12030921
 10
-84.68927878
 20
2520.14448537
 10
-84.08597812
 20
2520.1843615
 10
-83.49109028
 20
2520.23959605
 10
-82.904493
 20
2520.30984744
 10
-82.32606399
 20
2520.39477413
 10
-81.755681
 20
2520.49403454
 10
-81.19322176
 20
2520.60728712
 10
-80.63856399
 20
2520.73419029
 10
-80.09158543
 20
2520.87440251
 10
-79.55216381
 20
2521.0275822
 10
-79.02017685
 20
2521.19338782
 10
-78.49550229
 20
2521.37147778
 10
-77.97801786
 20
2521.56151054
 10
-77.46760129
 20
2521.76314453
 10
-76.96413031
 20
2521.97603818
 10
-76.46748265
 20
2522.19984994
 10
-75.97753604
 20
2522.43423824
 10
-75.49416822
 20
2522.67886153
 10
-75.0172569
 20
2522.93337823
 10
-74.54667984
 20
2523.19744679
 10
-74.08231474
 20
2523.47072565
 10
-73.62403935
 20
2523.75287324
 10
-73.1717314
 20
2524.043548
 10
-73.1717314
 20
2524.13028291
 10
-73.1717314
 20
2524.38057505
 10
-73.1717314
 20
2524.77955559
 10
-73.1717314
 20
2525.3123557
 10
-73.1717314
 20
2525.96410653
 10
-73.1717314
 20
2526.71993923
 10
-73.1717314
 20
2527.56498498
 10
-73.1717314
 20
2528.48437494
 10
-73.1717314
 20
2529.46324025
 10
-73.1717314
 20
2530.48671208
 10
-73.1717314
 20
2531.53992159
 10
-73.1717314
 20
2532.60799994
 10
-73.1717314
 20
2533.67607829
 10
-73.1717314
 20
2534.72928781
 10
-73.1717314
 20
2535.75275964
 10
-73.1717314
 20
2536.73162495
 10
-73.1717314
 20
2537.6510149
 10
-73.1717314
 20
2538.49606065
 10
-73.1717314
 20
2539.25189336
 10
-73.1717314
 20
2539.90364419
 10
-73.1717314
 20
2540.43644429
 10
-73.1717314
 20
2540.83542484
 10
-73.1717314
 20
2541.08571698
 10
-73.1717314
 20
2541.17245188
 10
-73.24112625
 20
2541.17245188
 10
-73.44137996
 20
2541.17245188
 10
-73.76059628
 20
2541.17245188
 10
-74.18687894
 20
2541.17245188
 10
-74.70833167
 20
2541.17245188
 10
-75.31305823
 20
2541.17245188
 10
-75.98916235
 20
2541.17245188
 10
-76.72474777
 20
2541.17245188
 10
-77.50791824
 20
2541.17245188
 10
-78.32677748
 20
2541.17245188
 10
-79.16942924
 20
2541.17245188
 10
-80.02397726
 20
2541.17245188
 10
-80.87852529
 20
2541.17245188
 10
-81.72117705
 20
2541.17245188
 10
-82.54003629
 20
2541.17245188
 10
-83.32320675
 20
2541.17245188
 10
-84.05879217
 20
2541.17245188
 10
-84.73489629
 20
2541.17245188
 10
-85.33962285
 20
2541.17245188
 10
-85.86107559
 20
2541.17245188
 10
-86.28735825
 20
2541.17245188
 10
-86.60657456
 20
2541.17245188
 10
-86.80682827
 20
2541.17245188
 10
-86.87622313
 20
2541.17245188
 10
-86.87337595
 20
2541.15482307
 10
-86.86515981
 20
2541.10395136
 10
-86.85206281
 20
2541.02285883
 10
-86.83457301
 20
2540.91456757
 10
-86.81317852
 20
2540.78209966
 10
-86.78836742
 20
2540.62847717
 10
-86.7606278
 20
2540.45672219
 10
-86.73044774
 20
2540.2698568
 10
-86.69831533
 20
2540.07090309
 10
-86.66471865
 20
2539.86288313
 10
-86.63014581
 20
2539.648819
 10
-86.59508488
 20
2539.4317328
 10
-86.56002394
 20
2539.21464659
 10
-86.5254511
 20
2539.00058247
 10
-86.49185442
 20
2538.79256251
 10
-86.45972201
 20
2538.59360879
 10
-86.42954195
 20
2538.40674341
 10
-86.40180233
 20
2538.23498843
 10
-86.37699123
 20
2538.08136594
 10
-86.35559674
 20
2537.94889802
 10
-86.33810694
 20
2537.84060676
 10
-86.32500994
 20
2537.75951423
 10
-86.3167938
 20
2537.70864253
 10
-86.31394663
 20
2537.69101372
 10
-86.26674011
 20
2537.69101372
 10
-86.13051559
 20
2537.69101372
 10
-85.91336561
 20
2537.69101372
 10
-85.62338271
 20
2537.69101372
 10
-85.26865946
 20
2537.69101372
 10
-84.85728838
 20
2537.69101372
 10
-84.39736202
 20
2537.69101372
 10
-83.89697294
 20
2537.69101372
 10
-83.36421367
 20
2537.69101372
 10
-82.80717677
 20
2537.69101372
 10
-82.23395477
 20
2537.69101372
 10
-81.65264023
 20
2537.69101372
 10
-81.07132569
 20
2537.69101372
 10
-80.49810369
 20
2537.69101372
 10
-79.94106678
 20
2537.69101372
 10
-79.40830752
 20
2537.69101372
 10
-78.90791843
 20
2537.69101372
 10
-78.44799208
 20
2537.69101372
 10
-78.036621
 20
2537.69101372
 10
-77.68189774
 20
2537.69101372
 10
-77.39191485
 20
2537.69101372
 10
-77.17476487
 20
2537.69101372
 10
-77.03854035
 20
2537.69101372
 10
-76.99133383
 20
2537.69101372
 10
-76.99133383
 20
2537.63214129
 10
-76.99133383
 20
2537.46225228
 10
-76.99133383
 20
2537.1914391
 10
-76.99133383
 20
2536.82979418
 10
-76.99133383
 20
2536.38740992
 10
-76.99133383
 20
2535.87437875
 10
-76.99133383
 20
2535.30079308
 10
-76.99133383
 20
2534.67674533
 10
-76.99133383
 20
2534.01232791
 10
-76.99133383
 20
2533.31763325
 10
-76.99133383
 20
2532.60275375
 10
-76.99133383
 20
2531.87778183
 10
-76.99133383
 20
2531.15280991
 10
-76.99133383
 20
2530.43793042
 10
-76.99133383
 20
2529.74323575
 10
-76.99133383
 20
2529.07881833
 10
-76.99133383
 20
2528.45477058
 10
-76.99133383
 20
2527.88118491
 10
-76.99133383
 20
2527.36815374
 10
-76.99133383
 20
2526.92576948
 10
-76.99133383
 20
2526.56412456
 10
-76.99133383
 20
2526.29331139
 10
-76.99133383
 20
2526.12342238
 10
-76.99133383
 20
2526.06454995
 10
-77.31447291
 20
2525.87176844
 10
-77.63863123
 20
2525.6866503
 10
-77.96422213
 20
2525.50924354
 10
-78.29165896
 20
2525.33959618
 10
-78.62135504
 20
2525.17775624
 10
-78.95372372
 20
2525.02377173
 10
-79.28917834
 20
2524.87769066
 10
-79.62813224
 20
2524.73956107
 10
-79.97099876
 20
2524.60943095
 10
-80.31819123
 20
2524.48734834
 10
-80.67012301
 20
2524.37336124
 10
-81.02720742
 20
2524.26751768
 10
-81.3898578
 20
2524.16986566
 10
-81.75848751
 20
2524.08045321
 10
-82.13350986
 20
2523.99932834
 10
-82.51533822
 20
2523.92653907
 10
-82.90438591
 20
2523.86213342
 10
-83.30106627
 20
2523.8061594
 10
-83.70579265
 20
2523.75866503
 10
-84.11897838
 20
2523.71969833
 10
-84.5410368
 20
2523.68930731
 10
-84.97238126
 20
2523.66753998
 10
-85.41342509
 20
2523.65444438
 10
-85.86458163
 20
2523.65006851
 10
-86.98126344
 20
2523.68406837
 10
-88.05646823
 20
2523.78515746
 10
-89.08965891
 20
2523.95197002
 10
-90.08029837
 20
2524.18314029
 10
-91.02784954
 20
2524.47730254
 10
-91.93177531
 20
2524.83309099
 10
-92.79153859
 20
2525.2491399
 10
-93.60660228
 20
2525.72408352
 10
-94.3764293
 20
2526.25655609
 10
-95.10048255
 20
2526.84519186
 10
-95.77822493
 20
2527.48862507
 10
-96.40911935
 20
2528.18548998
 10
-96.99262872
 20
2528.93442082
 10
-97.52821594
 20
2529.73405185
 10
-98.01534391
 20
2530.58301732
 10
-98.45347556
 20
2531.47995146
 10
-98.84207377
 20
2532.42348853
 10
-99.18060146
 20
2533.41226277
 10
-99.46852153
 20
2534.44490843
 10
-99.70529689
 20
2535.52005976
 10
-99.89039045
 20
2536.636351
 10
-100.0232651
 20
2537.7924164
 10
-100.10338376
 20
2538.9868902
 10
-100.13020934
 20
2540.21840666
 10
-100.10341627
 20
2541.45020322
 10
-100.02352515
 20
2542.64548531
  0
HATCH
  5
167
100
AcDbEntity
  8
DETAIL_1
 62
    28
  6
CONTINUOUS
100
AcDbHatch
 10
0.0
 20
0.0
 30
0.0
210
0.0
220
0.0
230
1.0
  2
SOLID
 70
     1
 71
     1
 91
        1
 92
        7
 72
     0
 73
     1
 93
      336
 10
-99.89126811
 20
2543.80283916
 10
-99.70737728
 20
2544.92085099
 10
-99.4725848
 20
2545.99810705
 10
-99.18762279
 20
2547.03319356
 10
-98.85322338
 20
2548.02469675
 10
-98.4701187
 20
2548.97120285
 10
-98.0390409
 20
2549.87129809
 10
-97.56072208
 20
2550.72356871
 10
-97.0358944
 20
2551.52660092
 10
-96.46528997
 20
2552.27898096
 10
-95.84964094
 20
2552.97929507
 10
-95.18967942
 20
2553.62612947
 10
-94.48613755
 20
2554.21807038
 10
-93.73974747
 20
2554.75370405
 10
-92.95124129
 20
2555.2316167
 10
-92.12135116
 20
2555.65039456
 10
-91.25080921
 20
2556.00862387
 10
-90.34034756
 20
2556.30489084
 10
-89.39069834
 20
2556.53778172
 10
-88.4025937
 20
2556.70588272
 10
-87.37676575
 20
2556.80778009
 10
-86.31394663
 20
2556.84206005
 10
-85.76390226
 20
2556.83393236
 10
-85.22314392
 20
2556.80979283
 10
-84.69157212
 20
2556.77000679
 10
-84.16908735
 20
2556.71493956
 10
-83.65559012
 20
2556.64495647
 10
-83.15098093
 20
2556.56042283
 10
-82.65516028
 20
2556.46170396
 10
-82.16802867
 20
2556.3491652
 10
-81.68948661
 20
2556.22317187
 10
-81.21943459
 20
2556.08408928
 10
-80.75777311
 20
2555.93228276
 10
-80.30440269
 20
2555.76811764
 10
-79.85922381
 20
2555.59195923
 10
-79.42213699
 20
2555.40417287
 10
-78.99304271
 20
2555.20512386
 10
-78.57184149
 20
2554.99517754
 10
-78.15843383
 20
2554.77469923
 10
-77.75272022
 20
2554.54405425
 10
-77.35460117
 20
2554.30360792
 10
-76.96397718
 20
2554.05372557
 10
-76.58074876
 20
2553.79477252
 10
-76.20481639
 20
2553.52711409
 10
-75.83608059
 20
2553.25111561
 10
-75.47444185
 20
2552.96714239
 10
-75.47102871
 20
2552.98733539
 10
-75.46117934
 20
2553.04560662
 10
-75.44547887
 20
2553.13849443
 10
-75.42451241
 20
2553.26253714
 10
-75.39886506
 20
2553.41427312
 10
-75.36912193
 20
2553.5902407
 10
-75.33586814
 20
2553.78697822
 10
-75.2996888
 20
2554.00102403
 10
-75.26116901
 20
2554.22891646
 10
-75.2208939
 20
2554.46719387
 10
-75.17944856
 20
2554.7123946
 10
-75.13741811
 20
2554.96105698
 10
-75.09538766
 20
2555.20971936
 10
-75.05394232
 20
2555.45492008
 10
-75.0136672
 20
2555.69319749
 10
-74.97514742
 20
2555.92108992
 10
-74.93896807
 20
2556.13513573
 10
-74.90571429
 20
2556.33187325
 10
-74.87597116
 20
2556.50784083
 10
-74.85032381
 20
2556.65957681
 10
-74.82935734
 20
2556.78361953
 10
-74.81365687
 20
2556.87650733
 10
-74.80380751
 20
2556.93477856
 10
-74.80039437
 20
2556.95497156
 10
-75.17631526
 20
2557.21700841
 10
-75.55998615
 20
2557.4695429
 10
-75.95155356
 20
2557.7124285
 10
-76.35116402
 20
2557.94551871
 10
-76.75896404
 20
2558.16866698
 10
-77.17510016
 20
2558.38172679
 10
-77.5997189
 20
2558.58455163
 10
-78.03296678
 20
2558.77699496
 10
-78.47499033
 20
2558.95891025
 10
-78.92593608
 20
2559.13015099
 10
-79.38595055
 20
2559.29057064
 10
-79.85518026
 20
2559.44002269
 10
-80.33377174
 20
2559.57836061
 10
-80.82187152
 20
2559.70543787
 10
-81.31962613
 20
2559.82110794
 10
-81.82718207
 20
2559.92522431
 10
-82.34468589
 20
2560.01764045
 10
-82.87228411
 20
2560.09820982
 10
-83.41012324
 20
2560.16678591
 10
-83.95834983
 20
2560.2232222
 10
-84.51711038
 20
2560.26737215
 10
-85.08655143
 20
2560.29908924
 10
-85.66681951
 20
2560.31822694
 10
-86.25806113
 20
2560.32463874
 10
-87.59287974
 20
2560.28197071
 10
-88.88653269
 20
2560.1552992
 10
-90.13762998
 20
2559.94662309
 10
-91.3447816
 20
2559.65794127
 10
-92.50659753
 20
2559.29125261
 10
-93.62168778
 20
2558.848556
 10
-94.68866232
 20
2558.33185032
 10
-95.70613116
 20
2557.74313444
 10
-96.67270428
 20
2557.08440725
 10
-97.58699167
 20
2556.35766762
 10
-98.44760333
 20
2555.56491445
 10
-99.25314924
 20
2554.7081466
 10
-100.0022394
 20
2553.78936297
 10
-100.69348379
 20
2552.81056242
 10
-101.32549242
 20
2551.77374384
 10
-101.89687526
 20
2550.68090612
 10
-102.40624231
 20
2549.53404813
 10
-102.85220356
 20
2548.33516875
 10
-103.233369
 20
2547.08626686
 10
-103.54834863
 20
2545.78934135
 10
-103.79575243
 20
2544.44639109
 10
-103.97419039
 20
2543.05941497
 10
-104.08227251
 20
2541.63041186
 10
-104.11860877
 20
2540.16138065
 10
-104.08364857
 20
2538.69947356
 10
-103.97935375
 20
2537.27756983
 10
-103.80660296
 20
2535.89764358
 10
-103.56627486
 20
2534.56166895
 10
-103.2592481
 20
2533.27162005
 10
-102.88640135
 20
2532.02947103
 10
-102.44861325
 20
2530.83719601
 10
-101.94676246
 20
2529.69676912
 10
-101.38172764
 20
2528.61016449
 10
-100.75438744
 20
2527.57935625
 10
-100.06562053
 20
2526.60631853
 10
-99.31630555
 20
2525.69302546
 10
-98.50732117
 20
2524.84145118
 10
-97.63954603
 20
2524.0535698
 10
-96.71385879
 20
2523.33135546
 10
-95.73113812
 20
2522.67678229
 10
-94.69226267
 20
2522.09182442
 10
-93.59811108
 20
2521.57845598
 10
-92.44956203
 20
2521.13865109
 10
-91.24749416
 20
2520.7743839
 10
-89.99278613
 20
2520.48762852
 10
-88.6863166
 20
2520.28035909
 10
-87.32896422
 20
2520.15454973
 10
-85.92160765
 20
2520.11217459
 10
-85.30111453
 20
2520.12030921
 10
-84.68927878
 20
2520.14448537
 10
-84.08597812
 20
2520.1843615
 10
-83.49109028
 20
2520.23959605
 10
-82.904493
 20
2520.30984744
 10
-82.32606399
 20
2520.39477413
 10
-81.755681
 20
2520.49403454
 10
-81.19322176
 20
2520.60728712
 10
-80.63856399
 20
2520.73419029
 10
-80.09158543
 20
2520.87440251
 10
-79.55216381
 20
2521.0275822
 10
-79.02017685
 20
2521.19338782
 10
-78.49550229
 20
2521.37147778
 10
-77.97801786
 20
2521.56151054
 10
-77.46760129
 20
2521.76314453
 10
-76.96413031
 20
2521.97603818
 10
-76.46748265
 20
2522.19984994
 10
-75.97753604
 20
2522.43423824
 10
-75.49416822
 20
2522.67886153
 10
-75.0172569
 20
2522.93337823
 10
-74.54667984
 20
2523.19744679
 10
-74.08231474
 20
2523.47072565
 10
-73.62403935
 20
2523.75287324
 10
-73.1717314
 20
2524.043548
 10
-73.1717314
 20
2524.13028291
 10
-73.1717314
 20
2524.38057505
 10
-73.1717314
 20
2524.77955559
 10
-73.1717314
 20
2525.3123557
 10
-73.1717314
 20
2525.96410653
 10
-73.1717314
 20
2526.71993923
 10
-73.1717314
 20
2527.56498498
 10
-73.1717314
 20
2528.48437494
 10
-73.1717314
 20
2529.46324025
 10
-73.1717314
 20
2530.48671208
 10
-73.1717314
 20
2531.53992159
 10
-73.1717314
 20
2532.60799994
 10
-73.1717314
 20
2533.67607829
 10
-73.1717314
 20
2534.72928781
 10
-73.1717314
 20
2535.75275964
 10
-73.1717314
 20
2536.73162495
 10
-73.1717314
 20
2537.6510149
 10
-73.1717314
 20
2538.49606065
 10
-73.1717314
 20
2539.25189336
 10
-73.1717314
 20
2539.90364419
 10
-73.1717314
 20
2540.43644429
 10
-73.1717314
 20
2540.83542484
 10
-73.1717314
 20
2541.08571698
 10
-73.1717314
 20
2541.17245188
 10
-73.24112625
 20
2541.17245188
 10
-73.44137996
 20
2541.17245188
 10
-73.76059628
 20
2541.17245188
 10
-74.18687894
 20
2541.17245188
 10
-74.70833167
 20
2541.17245188
 10
-75.31305823
 20
2541.17245188
 10
-75.98916235
 20
2541.17245188
 10
-76.72474777
 20
2541.17245188
 10
-77.50791824
 20
2541.17245188
 10
-78.32677748
 20
2541.17245188
 10
-79.16942924
 20
2541.17245188
 10
-80.02397726
 20
2541.17245188
 10
-80.87852529
 20
2541.17245188
 10
-81.72117705
 20
2541.17245188
 10
-82.54003629
 20
2541.17245188
 10
-83.32320675
 20
2541.17245188
 10
-84.05879217
 20
2541.17245188
 10
-84.73489629
 20
2541.17245188
 10
-85.33962285
 20
2541.17245188
 10
-85.86107559
 20
2541.17245188
 10
-86.28735825
 20
2541.17245188
 10
-86.60657456
 20
2541.17245188
 10
-86.80682827
 20
2541.17245188
 10
-86.87622313
 20
2541.17245188
 10
-86.87337595
 20
2541.15482307
 10
-86.86515981
 20
2541.10395136
 10
-86.85206281
 20
2541.02285883
 10
-86.83457301
 20
2540.91456757
 10
-86.81317852
 20
2540.78209966
 10
-86.78836742
 20
2540.62847717
 10
-86.7606278
 20
2540.45672219
 10
-86.73044774
 20
2540.2698568
 10
-86.69831533
 20
2540.07090309
 10
-86.66471865
 20
2539.86288313
 10
-86.63014581
 20
2539.648819
 10
-86.59508488
 20
2539.4317328
 10
-86.56002394
 20
2539.21464659
 10
-86.5254511
 20
2539.00058247
 10
-86.49185442
 20
2538.79256251
 10
-86.45972201
 20
2538.59360879
 10
-86.42954195
 20
2538.40674341
 10
-86.40180233
 20
2538.23498843
 10
-86.37699123
 20
2538.08136594
 10
-86.35559674
 20
2537.94889802
 10
-86.33810694
 20
2537.84060676
 10
-86.32500994
 20
2537.75951423
 10
-86.3167938
 20
2537.70864253
 10
-86.31394663
 20
2537.69101372
 10
-86.26674011
 20
2537.69101372
 10
-86.13051559
 20
2537.69101372
 10
-85.91336561
 20
2537.69101372
 10
-85.62338271
 20
2537.69101372
 10
-85.26865946
 20
2537.69101372
 10
-84.85728838
 20
2537.69101372
 10
-84.39736202
 20
2537.69101372
 10
-83.89697294
 20
2537.69101372
 10
-83.36421367
 20
2537.69101372
 10
-82.80717677
 20
2537.69101372
 10
-82.23395477
 20
2537.69101372
 10
-81.65264023
 20
2537.69101372
 10
-81.07132569
 20
2537.69101372
 10
-80.49810369
 20
2537.69101372
 10
-79.94106678
 20
2537.69101372
 10
-79.40830752
 20
2537.69101372
 10
-78.90791843
 20
2537.69101372
 10
-78.44799208
 20
2537.69101372
 10
-78.036621
 20
2537.69101372
 10
-77.68189774
 20
2537.69101372
 10
-77.39191485
 20
2537.69101372
 10
-77.17476487
 20
2537.69101372
 10
-77.03854035
 20
2537.69101372
 10
-76.99133383
 20
2537.69101372
 10
-76.99133383
 20
2537.63214129
 10
-76.99133383
 20
2537.46225228
 10
-76.99133383
 20
2537.1914391
 10
-76.99133383
 20
2536.82979418
 10
-76.99133383
 20
2536.38740992
 10
-76.99133383
 20
2535.87437875
 10
-76.99133383
 20
2535.30079308
 10
-76.99133383
 20
2534.67674533
 10
-76.99133383
 20
2534.01232791
 10
-76.99133383
 20
2533.31763325
 10
-76.99133383
 20
2532.60275375
 10
-76.99133383
 20
2531.87778183
 10
-76.99133383
 20
2531.15280991
 10
-76.99133383
 20
2530.43793042
 10
-76.99133383
 20
2529.74323575
 10
-76.99133383
 20
2529.07881833
 10
-76.99133383
 20
2528.45477058
 10
-76.99133383
 20
2527.88118491
 10
-76.99133383
 20
2527.36815374
 10
-76.99133383
 20
2526.92576948
 10
-76.99133383
 20
2526.56412456
 10
-76.99133383
 20
2526.29331139
 10
-76.99133383
 20
2526.12342238
 10
-76.99133383
 20
2526.06454995
 10
-77.31447291
 20
2525.87176844
 10
-77.63863123
 20
2525.6866503
 10
-77.96422213
 20
2525.50924354
 10
-78.29165896
 20
2525.33959618
 10
-78.62135504
 20
2525.17775624
 10
-78.95372372
 20
2525.02377173
 10
-79.28917834
 20
2524.87769066
 10
-79.62813224
 20
2524.73956107
 10
-79.97099876
 20
2524.60943095
 10
-80.31819123
 20
2524.48734834
 10
-80.67012301
 20
2524.37336124
 10
-81.02720742
 20
2524.26751768
 10
-81.3898578
 20
2524.16986566
 10
-81.75848751
 20
2524.08045321
 10
-82.13350986
 20
2523.99932834
 10
-82.51533822
 20
2523.92653907
 10
-82.90438591
 20
2523.86213342
 10
-83.30106627
 20
2523.8061594
 10
-83.70579265
 20
2523.75866503
 10
-84.11897838
 20
2523.71969833
 10
-84.5410368
 20
2523.68930731
 10
-84.97238126
 20
2523.66753998
 10
-85.41342509
 20
2523.65444438
 10
-85.86458163
 20
2523.65006851
 10
-86.98126344
 20
2523.68406837
 10
-88.05646823
 20
2523.78515746
 10
-89.08965891
 20
2523.95197002
 10
-90.08029837
 20
2524.18314029
 10
-91.02784954
 20
2524.47730254
 10
-91.93177531
 20
2524.83309099
 10
-92.79153859
 20
2525.2491399
 10
-93.60660228
 20
2525.72408352
 10
-94.3764293
 20
2526.25655609
 10
-95.10048255
 20
2526.84519186
 10
-95.77822493
 20
2527.48862507
 10
-96.40911935
 20
2528.18548998
 10
-96.99262872
 20
2528.93442082
 10
-97.52821594
 20
2529.73405185
 10
-98.01534391
 20
2530.58301732
 10
-98.45347556
 20
2531.47995146
 10
-98.84207377
 20
2532.42348853
 10
-99.18060146
 20
2533.41226277
 10
-99.46852153
 20
2534.44490843
 10
-99.70529689
 20
2535.52005976
 10
-99.89039045
 20
2536.636351
 10
-100.0232651
 20
2537.7924164
 10
-100.10338376
 20
2538.9868902
 10
-100.13020934
 20
2540.21840666
 10
-100.10341627
 20
2541.45020322
 10
-100.02352515
 20
2542.64548531
 97
        1
330
166
 75
     0
 76
     2
 47
0.775229
 98
        1
 10
0.0
 20
0.0
  0
LWPOLYLINE
  5
168
102
{ACAD_REACTORS
330
169
102
}
100
AcDbEntity
  8
DETAIL_1
 62
    28
  6
CONTINUOUS
370
    -3
100
AcDbPolyline
 90
       10
 70
     1
 43
0.0
 10
-369.86667791
 20
2554.14701062
 10
-369.86667791
 20
2559.59470576
 10
-398.11679507
 20
2559.59470576
 10
-397.1621796
 20
2553.47296314
 10
-378.90872272
 20
2553.47296314
 10
-398.9590693
 20
2526.29037296
 10
-398.9590693
 20
2520.84096705
 10
-369.36085717
 20
2520.84096705
 10
-370.31604291
 20
2526.96327993
 10
-389.9170245
 20
2526.96327993
  0
HATCH
  5
169
100
AcDbEntity
  8
DETAIL_1
 62
    28
  6
CONTINUOUS
100
AcDbHatch
 10
0.0
 20
0.0
 30
0.0
210
0.0
220
0.0
230
1.0
  2
SOLID
 70
     1
 71
     1
 91
        1
 92
        7
 72
     0
 73
     1
 93
       10
 10
-369.86667791
 20
2554.14701062
 10
-369.86667791
 20
2559.59470576
 10
-398.11679507
 20
2559.59470576
 10
-397.1621796
 20
2553.47296314
 10
-378.90872272
 20
2553.47296314
 10
-398.9590693
 20
2526.29037296
 10
-398.9590693
 20
2520.84096705
 10
-369.36085717
 20
2520.84096705
 10
-370.31604291
 20
2526.96327993
 10
-389.9170245
 20
2526.96327993
 97
        1
330
168
 75
     0
 76
     2
 47
0.775229
 98
        1
 10
0.0
 20
0.0
  0
LWPOLYLINE
  5
16A
102
{ACAD_REACTORS
330
16B
102
}
100
AcDbEntity
  8
DETAIL_1
 62
    28
  6
CONTINUOUS
370
    -3
100
AcDbPolyline
 90
        6
 70
     1
 43
0.0
 10
-418.40436987
 20
2559.59470576
 10
-425.87420747
 20
2559.59470576
 10
-425.87420747
 20
2520.84096705
 10
-404.47576591
 20
2520.84096705
 10
-405.48683714
 20
2527.41264492
 10
-418.40436987
 20
2527.41264492
  0
HATCH
  5
16B
100
AcDbEntity
  8
DETAIL_1
 62
    28
  6
CONTINUOUS
100
AcDbHatch
 10
0.0
 20
0.0
 30
0.0
210
0.0
220
0.0
230
1.0
  2
SOLID
 70
     1
 71
     1
 91
        1
 92
        7
 72
     0
 73
     1
 93
        6
 10
-418.40436987
 20
2559.59470576
 10
-425.87420747
 20
2559.59470576
 10
-425.87420747
 20
2520.84096705
 10
-404.47576591
 20
2520.84096705
 10
-405.48683714
 20
2527.41264492
 10
-418.40436987
 20
2527.41264492
 97
        1
330
16A
 75
     0
 76
     2
 47
0.775229
 98
        1
 10
0.0
 20
0.0
  0
LINE
  5
16C
100
AcDbEntity
  8
DETAIL_1
 62
    28
  6
CONTINUOUS
370
    -2
100
AcDbLine
 10
-433.88279656
 20
2538.79885105
 30
0.0
 11
-433.84587399
 21
2540.27429216
 31
0.0
  0
LWPOLYLINE
  5
16D
100
AcDbEntity
  8
DETAIL_1
 62
    28
  6
CONTINUOUS
370
    -3
100
AcDbPolyline
 90
       97
 70
     0
 43
0.0
 10
-441.55600384
 20
2537.18466058
 10
-441.69793637
 20
2536.24154444
 10
-441.87916635
 20
2535.33423787
 10
-442.09913319
 20
2534.46378683
 10
-442.35727626
 20
2533.6312373
 10
-442.65303498
 20
2532.83763525
 10
-442.98584872
 20
2532.08402666
 10
-443.35515689
 20
2531.37145749
 10
-443.76039887
 20
2530.70097371
 10
-444.20101405
 20
2530.07362131
 10
-444.67644184
 20
2529.49044624
 10
-445.18612162
 20
2528.95249449
 10
-445.72949278
 20
2528.46081202
 10
-446.30599472
 20
2528.01644481
 10
-446.91506683
 20
2527.62043882
 10
-447.55614851
 20
2527.27384004
 10
-448.22867914
 20
2526.97769443
 10
-448.93209812
 20
2526.73304796
 10
-449.66584484
 20
2526.54094661
 10
-450.42935869
 20
2526.40243634
 10
-451.22207907
 20
2526.31856314
 10
-452.04344537
 20
2526.29037296
 10
-452.8579763
 20
2526.31856314
 10
-453.64443059
 20
2526.40243634
 10
-454.40222286
 20
2526.54094661
 10
-455.13076778
 20
2526.73304796
 10
-455.82947996
 20
2526.97769443
 10
-456.49777407
 20
2527.27384004
 10
-457.13506473
 20
2527.62043882
 10
-457.7407666
 20
2528.01644481
 10
-458.31429431
 20
2528.46081202
 10
-458.85506251
 20
2528.95249449
 10
-459.36248583
 20
2529.49044624
 10
-459.83597892
 20
2530.07362131
 10
-460.27495643
 20
2530.70097371
 10
-460.67883298
 20
2531.37145749
 10
-461.04702323
 20
2532.08402666
 10
-461.37894182
 20
2532.83763525
 10
-461.67400339
 20
2533.6312373
 10
-461.93162257
 20
2534.46378683
 10
-462.15121402
 20
2535.33423787
 10
-462.33219237
 20
2536.24154444
 10
-462.47397227
 20
2537.18466058
 10
-462.57596835
 20
2538.16254031
 10
-462.63759526
 20
2539.17413766
 10
-462.65826765
 20
2540.21840666
 10
-462.63759526
 20
2541.26248215
 10
-462.57596835
 20
2542.27392485
 10
-462.47397227
 20
2543.25168607
 10
-462.33219237
 20
2544.19471711
 10
-462.15121402
 20
2545.10196927
 10
-461.93162257
 20
2545.97239386
 10
-461.67400339
 20
2546.8049422
 10
-461.37894182
 20
2547.59856557
 10
-461.04702323
 20
2548.35221529
 10
-460.67883298
 20
2549.06484267
 10
-460.27495643
 20
2549.73539901
 10
-459.83597892
 20
2550.36283561
 10
-459.36248583
 20
2550.94610378
 10
-458.85506251
 20
2551.48415482
 10
-458.31429431
 20
2551.97594005
 10
-457.7407666
 20
2552.42041076
 10
-457.13506473
 20
2552.81651826
 10
-456.49777407
 20
2553.16321387
 10
-455.82947996
 20
2553.45944887
 10
-455.13076778
 20
2553.70417458
 10
-454.40222286
 20
2553.89634231
 10
-453.64443059
 20
2554.03490335
 10
-452.8579763
 20
2554.11880902
 10
-452.04344537
 20
2554.14701062
 10
-451.22856021
 20
2554.11880902
 10
-450.44121832
 20
2554.03490335
 10
-449.68205381
 20
2553.89634231
 10
-448.95170081
 20
2553.70417458
 10
-448.25079343
 20
2553.45944887
 10
-447.57996578
 20
2553.16321387
 10
-446.93985199
 20
2552.81651826
 10
-446.33108617
 20
2552.42041076
 10
-445.75430244
 20
2551.97594005
 10
-445.21013492
 20
2551.48415482
 10
-444.69921772
 20
2550.94610378
 10
-444.22218496
 20
2550.36283561
 10
-443.77967076
 20
2549.73539901
 10
-443.37230924
 20
2549.06484267
 10
-443.00073452
 20
2548.35221529
 10
-442.6655807
 20
2547.59856557
 10
-442.36748192
 20
2546.8049422
 10
-442.10707228
 20
2545.97239386
 10
-441.8849859
 20
2545.10196927
 10
-441.7018569
 20
2544.19471711
 10
-441.55831941
 20
2543.25168607
 10
-441.45500752
 20
2542.27392485
 10
-441.39255538
 20
2541.26248215
 10
-441.37159708
 20
2540.21840666
 10
-441.39227359
 20
2539.17413766
 10
-441.45392938
 20
2538.16254031
 10
-441.55600384
 20
2537.18466058
  0
LWPOLYLINE
  5
16E
100
AcDbEntity
  8
DETAIL_1
 62
    28
  6
CONTINUOUS
370
    -3
100
AcDbPolyline
 90
       96
 70
     0
 43
0.0
 10
-433.84587399
 20
2540.27429216
 10
-433.88222766
 20
2541.7491673
 10
-433.99044352
 20
2543.18184467
 10
-434.16925381
 20
2544.57049618
 10
-434.41739082
 20
2545.91329373
 10
-434.73358678
 20
2547.20840921
 10
-435.11657397
 20
2548.45401453
 10
-435.56508464
 20
2549.64828158
 10
-436.07785106
 20
2550.78938227
 10
-436.65360549
 20
2551.8754885
 10
-437.29108017
 20
2552.90477217
 10
-437.98900739
 20
2553.87540517
 10
-438.74611939
 20
2554.78555942
 10
-439.56114843
 20
2555.6334068
 10
-440.43282678
 20
2556.41711922
 10
-441.3598867
 20
2557.13486859
 10
-442.34106044
 20
2557.78482679
 10
-443.37508027
 20
2558.36516574
 10
-444.46067845
 20
2558.87405732
 10
-445.59658723
 20
2559.30967345
 10
-446.78153888
 20
2559.67018602
 10
-448.01426566
 20
2559.95376694
 10
-449.29349982
 20
2560.15858809
 10
-450.61797363
 20
2560.28282139
 10
-451.98641936
 20
2560.32463874
 10
-453.34908661
 20
2560.28253428
 10
-454.66994049
 20
2560.15745549
 10
-455.9475432
 20
2559.95125423
 10
-457.18045697
 20
2559.66578235
 10
-458.36724402
 20
2559.30289171
 10
-459.50646658
 20
2558.86443418
 10
-460.59668685
 20
2558.35226162
 10
-461.63646708
 20
2557.76822589
 10
-462.62436947
 20
2557.11417884
 10
-463.55895625
 20
2556.39197234
 10
-464.43878964
 20
2555.60345824
 10
-465.26243187
 20
2554.75048842
 10
-466.02844515
 20
2553.83491472
 10
-466.7353917
 20
2552.85858902
 10
-467.38183376
 20
2551.82336316
 10
-467.96633353
 20
2550.73108901
 10
-468.48745324
 20
2549.58361844
 10
-468.94375512
 20
2548.38280329
 10
-469.33380138
 20
2547.13049544
 10
-469.65615425
 20
2545.82854673
 10
-469.90937595
 20
2544.47880904
 10
-470.0920287
 20
2543.08313423
 10
-470.20267472
 20
2541.64337414
 10
-470.23987623
 20
2540.16138065
 10
-470.20296467
 20
2538.68664222
 10
-470.09317219
 20
2537.25409016
 10
-469.91191205
 20
2535.86555308
 10
-469.66059753
 20
2534.52285958
 10
-469.34064191
 20
2533.22783823
 10
-468.95345845
 20
2531.98231764
 10
-468.50046045
 20
2530.78812641
 10
-467.98306116
 20
2529.64709312
 10
-467.40267387
 20
2528.56104638
 10
-466.76071185
 20
2527.53181477
 10
-466.05858837
 20
2526.56122689
 10
-465.29771671
 20
2525.65111134
 10
-464.47951015
 20
2524.80329671
 10
-463.60538196
 20
2524.0196116
 10
-462.67674541
 20
2523.30188459
 10
-461.69501379
 20
2522.65194429
 10
-460.66160035
 20
2522.07161929
 10
-459.57791839
 20
2521.56273818
 10
-458.44538117
 20
2521.12712956
 10
-457.26540197
 20
2520.76662202
 10
-456.03939407
 20
2520.48304416
 10
-454.76877073
 20
2520.27822457
 10
-453.45494524
 20
2520.15399185
 10
-452.09933086
 20
2520.11217459
 10
-450.73024793
 20
2520.1545579
 10
-449.4040699
 20
2520.28042443
 10
-448.12216177
 20
2520.48784905
 10
-446.88588856
 20
2520.77490664
 10
-445.69661529
 20
2521.13967207
 10
-444.55570695
 20
2521.58022022
 10
-443.46452857
 20
2522.09462597
 10
-442.42444515
 20
2522.6809642
 10
-441.4368217
 20
2523.33730978
 10
-440.50302323
 20
2524.06173759
 10
-439.62441476
 20
2524.8523225
 10
-438.80236129
 20
2525.7071394
 10
-438.03822784
 20
2526.62426316
 10
-437.33337942
 20
2527.60176866
 10
-436.68918103
 20
2528.63773077
 10
-436.10699769
 20
2529.73022438
 10
-435.58819441
 20
2530.87732435
 10
-435.1341362
 20
2532.07710557
 10
-434.74618807
 20
2533.32764291
 10
-434.42571503
 20
2534.62701125
 10
-434.17408209
 20
2535.97328547
 10
-433.99265426
 20
2537.36454044
 10
-433.88279656
 20
2538.79885105
  0
LINE
  5
16F
100
AcDbEntity
  8
DETAIL_1
 62
    28
  6
CONTINUOUS
370
    -2
100
AcDbLine
 10
-261.69859372
 20
2559.81938825
 30
0.0
 11
-265.68699315
 21
2559.81938825
 31
0.0
  0
LWPOLYLINE
  5
170
100
AcDbEntity
  8
DETAIL_1
 62
    28
  6
CONTINUOUS
370
    -3
100
AcDbPolyline
 90
        4
 70
     0
 43
0.0
 10
-263.7777622
 20
2555.3263086
 10
-256.64494834
 20
2536.79228373
 10
-270.91057605
 20
2536.79228373
 10
-263.7777622
 20
2555.3263086
  0
LWPOLYLINE
  5
171
100
AcDbEntity
  8
DETAIL_1
 62
    28
  6
CONTINUOUS
370
    -3
100
AcDbPolyline
 90
        8
 70
     0
 43
0.0
 10
-265.68699315
 20
2559.81938825
 10
-280.96312183
 20
2520.84096705
 10
-277.03174841
 20
2520.84096705
 10
-272.25867102
 20
2533.3661608
 10
-255.29685337
 20
2533.3661608
 10
-250.29795297
 20
2520.44862807
 10
-246.53537655
 20
2521.29033204
 10
-261.69859372
 20
2559.81938825
  0
LINE
  5
172
100
AcDbEntity
  8
DETAIL_1
 62
    28
  6
CONTINUOUS
370
    -2
100
AcDbLine
 10
-127.80379349
 20
2559.81938825
 30
0.0
 11
-143.07992217
 21
2520.84096705
 31
0.0
  0
LWPOLYLINE
  5
173
100
AcDbEntity
  8
DETAIL_1
 62
    28
  6
CONTINUOUS
370
    -3
100
AcDbPolyline
 90
        4
 70
     0
 43
0.0
 10
-125.89456254
 20
2555.3263086
 10
-118.76174869
 20
2536.79228373
 10
-133.02737639
 20
2536.79228373
 10
-125.89456254
 20
2555.3263086
  0
LWPOLYLINE
  5
174
100
AcDbEntity
  8
DETAIL_1
 62
    28
  6
CONTINUOUS
370
    -3
100
AcDbPolyline
 90
        8
 70
     0
 43
0.0
 10
-143.07992217
 20
2520.84096705
 10
-139.14854875
 20
2520.84096705
 10
-134.37547137
 20
2533.3661608
 10
-117.41365371
 20
2533.3661608
 10
-112.41475331
 20
2520.44862807
 10
-108.6521769
 20
2521.29033204
 10
-123.81539406
 20
2559.81938825
 10
-127.80379349
 20
2559.81938825
  0
3DFACE
  5
175
100
AcDbEntity
  8
DETAIL_1
 62
    36
  6
CONTINUOUS
370
    -3
100
AcDbFace
 70
     0
 10
-1740.0756382
 20
1772.04715754
 30
160.0
 11
-1540.07563792
 21
1772.04715754
 31
160.0
 12
-1540.07563792
 22
984.54716314
 32
160.0
 13
-1740.0756382
 23
984.54716314
 33
160.0
  0
LWPOLYLINE
  5
176
102
{ACAD_REACTORS
330
177
102
}
100
AcDbEntity
  8
DETAIL_1
 62
    36
  6
CONTINUOUS
370
    -3
100
AcDbPolyline
 90
        4
 70
     1
 43
0.0
 10
-964.28336657
 20
1922.86363118
 10
-964.28336657
 20
1948.36363115
 10
-176.78336016
 20
1948.36363115
 10
-176.78336016
 20
1922.86363118
  0
HATCH
  5
177
100
AcDbEntity
  8
DETAIL_1
 62
     9
  6
CONTINUOUS
100
AcDbHatch
 10
0.0
 20
0.0
 30
0.0
210
0.0
220
0.0
230
1.0
  2
ANSI31
 70
     0
 71
     1
 91
        1
 92
        7
 72
     0
 73
     1
 93
        4
 10
-964.28336657
 20
1922.86363118
 10
-964.28336657
 20
1948.36363115
 10
-176.78336016
 20
1948.36363115
 10
-176.78336016
 20
1922.86363118
 97
        1
330
176
 75
     0
 76
     2
 52
0.0
 41
6.2992521
 77
     0
 78
     1
 53
45.0
 43
0.0
 44
0.0
 45
14.14213562
 46
-14.14213562
 79
     0
 47
0.775229
 98
        1
 10
0.0
 20
0.0
  0
LWPOLYLINE
  5
178
102
{ACAD_REACTORS
330
179
102
}
100
AcDbEntity
  8
DETAIL_1
 62
    36
  6
CONTINUOUS
370
    -3
100
AcDbPolyline
 90
        4
 70
     1
 43
0.0
 10
-964.28336657
 20
2047.36363145
 10
-964.28336657
 20
2072.86363116
 10
-176.78336016
 20
2072.86363116
 10
-176.78336016
 20
2047.36363145
  0
HATCH
  5
179
100
AcDbEntity
  8
DETAIL_1
 62
     9
  6
CONTINUOUS
100
AcDbHatch
 10
0.0
 20
0.0
 30
0.0
210
0.0
220
0.0
230
1.0
  2
ANSI31
 70
     0
 71
     1
 91
        1
 92
        7
 72
     0
 73
     1
 93
        4
 10
-964.28336657
 20
2047.36363145
 10
-964.28336657
 20
2072.86363116
 10
-176.78336016
 20
2072.86363116
 10
-176.78336016
 20
2047.36363145
 97
        1
330
178
 75
     0
 76
     2
 52
0.0
 41
6.2992521
 77
     0
 78
     1
 53
45.0
 43
0.0
 44
0.0
 45
14.14213562
 46
-14.14213562
 79
     0
 47
0.775229
 98
        1
 10
0.0
 20
0.0
  0
LINE
  5
17A
100
AcDbEntity
  8
DETAIL_1
 62
    36
  6
CONTINUOUS
370
    -2
100
AcDbLine
 10
-176.78336016
 20
2072.86363116
 30
0.0
 11
-176.78336016
 21
1922.86363118
 31
0.0
  0
LINE
  5
17B
100
AcDbEntity
  8
DETAIL_1
 62
    36
  6
CONTINUOUS
370
    -2
100
AcDbLine
 10
-964.28336657
 20
2072.86363116
 30
0.0
 11
-964.28336657
 21
1922.86363118
 31
0.0
  0
LWPOLYLINE
  5
17C
100
AcDbEntity
  8
DETAIL_1
 62
    36
  6
CONTINUOUS
370
    -3
100
AcDbPolyline
 90
        4
 70
     1
 43
0.0
 10
-964.28336657
 20
1772.04715754
 10
-176.78336016
 20
1772.04715754
 10
-176.78336016
 20
1622.04715756
 10
-964.28336657
 20
1622.04715756
  0
LWPOLYLINE
  5
17D
102
{ACAD_REACTORS
330
17E
102
}
100
AcDbEntity
  8
DETAIL_1
 62
    36
  6
CONTINUOUS
370
    -3
100
AcDbPolyline
 90
        4
 70
     1
 43
0.0
 10
-964.28336657
 20
1645.79715513
 10
-964.28336657
 20
1636.29715513
 10
-176.78336016
 20
1636.29715513
 10
-176.78336016
 20
1645.79715513
  0
HATCH
  5
17E
100
AcDbEntity
  8
DETAIL_1
 62
    36
  6
CONTINUOUS
100
AcDbHatch
 10
0.0
 20
0.0
 30
0.0
210
0.0
220
0.0
230
1.0
  2
SOLID
 70
     1
 71
     1
 91
        1
 92
        7
 72
     0
 73
     1
 93
        4
 10
-964.28336657
 20
1645.79715513
 10
-964.28336657
 20
1636.29715513
 10
-176.78336016
 20
1636.29715513
 10
-176.78336016
 20
1645.79715513
 97
        1
330
17D
 75
     0
 76
     2
 47
0.775229
 98
        1
 10
0.0
 20
0.0
  0
LWPOLYLINE
  5
17F
102
{ACAD_REACTORS
330
180
102
}
100
AcDbEntity
  8
DETAIL_1
 62
    36
  6
CONTINUOUS
370
    -3
100
AcDbPolyline
 90
        4
 70
     1
 43
0.0
 10
-964.28336657
 20
1757.7971575
 10
-964.28336657
 20
1748.2971575
 10
-176.78336016
 20
1748.2971575
 10
-176.78336016
 20
1757.7971575
  0
HATCH
  5
180
100
AcDbEntity
  8
DETAIL_1
 62
    36
  6
CONTINUOUS
100
AcDbHatch
 10
0.0
 20
0.0
 30
0.0
210
0.0
220
0.0
230
1.0
  2
SOLID
 70
     1
 71
     1
 91
        1
 92
        7
 72
     0
 73
     1
 93
        4
 10
-964.28336657
 20
1757.7971575
 10
-964.28336657
 20
1748.2971575
 10
-176.78336016
 20
1748.2971575
 10
-176.78336016
 20
1757.7971575
 97
        1
330
17F
 75
     0
 76
     2
 47
0.775229
 98
        1
 10
0.0
 20
0.0
  0
LINE
  5
181
100
AcDbEntity
  8
DETAIL_1
 62
     9
  6
HIDDEN
370
    -2
100
AcDbLine
 10
-964.28336657
 20
1746.54715783
 30
0.0
 11
-176.78336016
 21
1746.54715783
 31
0.0
  0
LINE
  5
182
100
AcDbEntity
  8
DETAIL_1
 62
     9
  6
HIDDEN
370
    -2
100
AcDbLine
 10
-964.28336657
 20
1647.54715753
 30
0.0
 11
-176.78336016
 21
1647.54715753
 31
0.0
  0
3DFACE
  5
183
100
AcDbEntity
  8
DETAIL_1
 62
     9
  6
HIDDEN
370
    -3
100
AcDbFace
 70
     0
 10
-1699.07563801
 20
838.7306895
 30
289.0
 11
-1699.07563801
 21
51.2306951
 31
289.0
 12
-1727.07563801
 22
51.2306951
 32
289.0
 13
-1727.07563801
 23
838.7306895
 33
289.0
  0
3DFACE
  5
184
100
AcDbEntity
  8
DETAIL_1
 62
     9
  6
HIDDEN
370
    -3
100
AcDbFace
 70
     0
 10
-1540.07563792
 20
838.7306895
 30
289.0
 11
-1540.07563792
 21
51.2306951
 31
289.0
 12
-1565.07563792
 22
51.2306951
 32
289.0
 13
-1565.07563792
 23
838.7306895
 33
289.0
  0
3DFACE
  5
185
100
AcDbEntity
  8
DETAIL_1
 62
    36
  6
CONTINUOUS
370
    -3
100
AcDbFace
 70
     0
 10
-1740.0756382
 20
838.7306895
 30
160.0
 11
-1540.07563792
 21
838.7306895
 31
160.0
 12
-1540.07563792
 22
51.2306951
 32
160.0
 13
-1740.0756382
 23
51.2306951
 33
160.0
  0
3DFACE
  5
186
102
{ACAD_REACTORS
330
187
102
}
100
AcDbEntity
  8
DETAIL_1
 62
    36
  6
CONTINUOUS
370
    -3
100
AcDbFace
 70
     0
 10
-1727.07563801
 20
2047.36363143
 30
2300.0
 11
-1699.07563801
 21
2047.36363145
 31
2300.0
 12
-1699.07563801
 22
1948.36363115
 32
2300.0
 13
-1727.07563801
 23
1948.36363117
 33
2300.0
  0
HATCH
  5
187
100
AcDbEntity
  8
DETAIL_1
 62
     9
  6
CONTINUOUS
100
AcDbHatch
 10
0.0
 20
0.0
 30
0.0
210
0.0
220
0.0
230
1.0
  2
ANSI31
 70
     0
 71
     1
 91
        1
 92
        7
 72
     0
 73
     1
 93
        4
 10
-1727.07563801
 20
2047.36363143
 10
-1699.07563801
 20
2047.36363145
 10
-1699.07563801
 20
1948.36363115
 10
-1727.07563801
 20
1948.36363117
 97
        1
330
186
 75
     0
 76
     2
 52
0.0
 41
6.2992521
 77
     0
 78
     1
 53
45.0
 43
0.0
 44
0.0
 45
14.14213562
 46
-14.14213562
 79
     0
 47
0.775229
 98
        1
 10
0.0
 20
0.0
  0
LWPOLYLINE
  5
188
102
{ACAD_REACTORS
330
189
102
}
100
AcDbEntity
  8
DETAIL_1
 62
    36
  6
CONTINUOUS
370
    -3
100
AcDbPolyline
 90
       14
 70
     1
 43
0.0
 38
2300.0
 39
-2300.0
 10
-1540.07563792
 20
1948.36363115
 10
-1540.07563792
 20
1946.86363118
 10
-1552.07563792
 20
1946.86363118
 10
-1552.07563792
 20
1936.86363118
 10
-1540.07563792
 20
1936.86363118
 10
-1540.07563792
 20
1925.86363118
 10
-1543.07563792
 20
1922.86363118
 10
-1737.0756382
 20
1922.86363118
 10
-1740.07563801
 20
1925.86363118
 10
-1738.07432298
 20
1937.11363118
 10
-1750.07563801
 20
1937.11363118
 10
-1750.07563801
 20
1946.61363118
 10
-1738.07432427
 20
1946.61363118
 10
-1738.07432522
 20
1948.36363118
  0
HATCH
  5
189
100
AcDbEntity
  8
DETAIL_1
 62
     9
  6
CONTINUOUS
100
AcDbHatch
 10
0.0
 20
0.0
 30
0.0
210
0.0
220
0.0
230
1.0
  2
ANSI31
 70
     0
 71
     1
 91
        1
 92
        7
 72
     0
 73
     1
 93
       14
 10
-1540.07563792
 20
1948.36363115
 10
-1540.07563792
 20
1946.86363118
 10
-1552.07563792
 20
1946.86363118
 10
-1552.07563792
 20
1936.86363118
 10
-1540.07563792
 20
1936.86363118
 10
-1540.07563792
 20
1925.86363118
 10
-1543.07563792
 20
1922.86363118
 10
-1737.0756382
 20
1922.86363118
 10
-1740.07563801
 20
1925.86363118
 10
-1738.07432298
 20
1937.11363118
 10
-1750.07563801
 20
1937.11363118
 10
-1750.07563801
 20
1946.61363118
 10
-1738.07432427
 20
1946.61363118
 10
-1738.07432522
 20
1948.36363118
 97
        1
330
188
 75
     0
 76
     2
 52
0.0
 41
6.2992521
 77
     0
 78
     1
 53
45.0
 43
0.0
 44
0.0
 45
14.14213562
 46
-14.14213562
 79
     0
 47
0.775229
 98
        1
 10
0.0
 20
0.0
  0
LWPOLYLINE
  5
18A
102
{ACAD_REACTORS
330
18B
102
}
100
AcDbEntity
  8
DETAIL_1
 62
    36
  6
CONTINUOUS
370
    -3
100
AcDbPolyline
 90
        8
 70
     1
 43
0.0
 38
2300.0
 39
-2300.0
 10
-1539.07563792
 20
2042.86363116
 10
-1540.07563792
 20
2042.86363157
 10
-1540.07563792
 20
2047.36363118
 10
-1565.07563792
 20
2047.36363116
 10
-1565.07563792
 20
1948.36363118
 10
-1540.07563792
 20
1948.36363115
 10
-1540.07563792
 20
1952.86363148
 10
-1539.07563792
 20
1952.86363118
  0
HATCH
  5
18B
100
AcDbEntity
  8
DETAIL_1
 62
     9
  6
CONTINUOUS
100
AcDbHatch
 10
0.0
 20
0.0
 30
0.0
210
0.0
220
0.0
230
1.0
  2
ANSI31
 70
     0
 71
     1
 91
        1
 92
        7
 72
     0
 73
     1
 93
        8
 10
-1539.07563792
 20
2042.86363116
 10
-1540.07563792
 20
2042.86363157
 10
-1540.07563792
 20
2047.36363118
 10
-1565.07563792
 20
2047.36363116
 10
-1565.07563792
 20
1948.36363118
 10
-1540.07563792
 20
1948.36363115
 10
-1540.07563792
 20
1952.86363148
 10
-1539.07563792
 20
1952.86363118
 97
        1
330
18A
 75
     0
 76
     2
 52
0.0
 41
6.2992521
 77
     0
 78
     1
 53
45.0
 43
0.0
 44
0.0
 45
14.14213562
 46
-14.14213562
 79
     0
 47
0.775229
 98
        1
 10
0.0
 20
0.0
  0
LWPOLYLINE
  5
18C
102
{ACAD_REACTORS
330
18D
102
}
100
AcDbEntity
  8
DETAIL_1
 62
    36
  6
CONTINUOUS
370
    -3
100
AcDbPolyline
 90
       17
 70
     1
 43
0.0
 38
2300.0
 39
-2300.0
 10
-1740.0756382
 20
2072.86363116
 10
-1657.57563801
 20
2072.86363117
 10
-1606.57563792
 20
2072.86363116
 10
-1540.07563792
 20
2072.86363116
 10
-1540.07563792
 20
2058.86363116
 10
-1552.07563792
 20
2058.86363116
 10
-1552.07563792
 20
2048.86363116
 10
-1540.07563792
 20
2048.86363116
 10
-1540.07563792
 20
2047.36363118
 10
-1606.57563792
 20
2047.36363117
 10
-1657.57563801
 20
2047.36363117
 10
-1738.07432522
 20
2047.36363116
 10
-1738.07432522
 20
2049.11363116
 10
-1750.07563801
 20
2049.11363116
 10
-1750.07563801
 20
2058.61363111
 10
-1738.07432522
 20
2058.61363111
 10
-1740.0756342
 20
2070.86363111
  0
HATCH
  5
18D
100
AcDbEntity
  8
DETAIL_1
 62
     9
  6
CONTINUOUS
100
AcDbHatch
 10
0.0
 20
0.0
 30
0.0
210
0.0
220
0.0
230
1.0
  2
ANSI31
 70
     0
 71
     1
 91
        1
 92
        7
 72
     0
 73
     1
 93
       17
 10
-1740.0756382
 20
2072.86363116
 10
-1657.57563801
 20
2072.86363117
 10
-1606.57563792
 20
2072.86363116
 10
-1540.07563792
 20
2072.86363116
 10
-1540.07563792
 20
2058.86363116
 10
-1552.07563792
 20
2058.86363116
 10
-1552.07563792
 20
2048.86363116
 10
-1540.07563792
 20
2048.86363116
 10
-1540.07563792
 20
2047.36363118
 10
-1606.57563792
 20
2047.36363117
 10
-1657.57563801
 20
2047.36363117
 10
-1738.07432522
 20
2047.36363116
 10
-1738.07432522
 20
2049.11363116
 10
-1750.07563801
 20
2049.11363116
 10
-1750.07563801
 20
2058.61363111
 10
-1738.07432522
 20
2058.61363111
 10
-1740.0756342
 20
2070.86363111
 97
        1
330
18C
 75
     0
 76
     2
 52
0.0
 41
6.2992521
 77
     0
 78
     1
 53
45.0
 43
0.0
 44
0.0
 45
14.14213562
 46
-14.14213562
 79
     0
 47
0.775229
 98
        1
 10
0.0
 20
0.0
  0
TEXT
  5
18E
100
AcDbEntity
  8
DETAIL_1
 62
     7
370
    -3
100
AcDbText
 10
-739.87362082
 20
51.2306951
 30
0.0
 40
30.0
  1
Copyright 2010 by EGG HOLZ KÄLIN AG
  7
WHITNEY_BOOK
 50
0.0
 41
1.0
 51
0.0
100
AcDbText
  0
TEXT
  5
18F
100
AcDbEntity
  8
DETAIL_1
 62
     7
370
    25
100
AcDbText
 10
-424.52221869
 20
458.6920041
 30
0.0
 40
30.0
  1
EGG HOLZ KÄLIN AG
  7
WHITNEY_BOOK
 50
0.0083474
 41
1.0
 51
0.0
100
AcDbText
  0
TEXT
  5
190
100
AcDbEntity
  8
DETAIL_1
 62
     7
370
    25
100
AcDbText
 10
-296.64722005
 20
401.11063249
 30
0.0
 40
30.0
  1
Eggerstrasse 1
  7
WHITNEY_BOOK
 50
0.0083474
 41
1.0
 51
0.0
100
AcDbText
  0
TEXT
  5
191
100
AcDbEntity
  8
DETAIL_1
 62
     7
370
    25
100
AcDbText
 10
-500.83471788
 20
343.48088281
 30
0.0
 40
30.0
  1
Tel. ++41 (0)55 418 90 82
  7
WHITNEY_BOOK
 50
0.0083474
 41
1.0
 51
0.0
100
AcDbText
  0
TEXT
  5
192
100
AcDbEntity
  8
DETAIL_1
 62
     7
370
    25
100
AcDbText
 10
-498.57685066
 20
289.48121118
 30
0.0
 40
30.0
  1
Fax ++41 (0)55 418 90 84
  7
WHITNEY_BOOK
 50
0.0083474
 41
1.0
 51
0.0
100
AcDbText
  0
TEXT
  5
193
100
AcDbEntity
  8
DETAIL_1
 62
     7
370
    25
100
AcDbText
 10
-340.8814851
 20
235.50418519
 30
0.0
 40
30.0
  1
CH-8847 Egg SZ
  7
WHITNEY_BOOK
 50
0.0083474
 41
1.0
 51
0.0
100
AcDbText
  0
TEXT
  5
194
100
AcDbEntity
  8
DETAIL_1
 62
     7
370
    25
100
AcDbText
 10
-332.06111795
 20
181.50546965
 30
0.0
 40
30.0
  1
www.eggholz.ch
  7
WHITNEY_BOOK
 50
0.0083474
 41
1.0
 51
0.0
100
AcDbText
  0
TEXT
  5
195
100
AcDbEntity
  8
DETAIL_1
 62
     5
370
    -3
100
AcDbText
 10
-1923.03504217
 20
2328.16582214
 30
0.0
 40
50.0
  1
Kastenelement Light EL 150/200mm
  7
WHITNEY_BOOK
 50
0.0
 41
1.0
 51
0.0
100
AcDbText
  0
ENDSEC
  0
SECTION
  2
OBJECTS
  0
DICTIONARY
  5
1
100
AcDbDictionary
  3
ACAD_GROUP
350
2
  3
ACAD_MLINESTYLE
350
3
  0
DICTIONARY
  5
2
102
{CDWK_REACTORS
330
1
102
}
100
AcDbDictionary
  0
DICTIONARY
  5
3
102
{CDWK_REACTORS
330
1
102
}
100
AcDbDictionary
  3
STANDARD
350
4
  0
MLINESTYLE
  5
4
102
{CDWK_REACTORS
330
3
102
}
100
AcDbMlineStyle
  2
STANDARD
 70
     0
  3

 62
     0
 51
90.0
 52
90.0
 71
     2
 49
0.5
 62
   256
  6
BYLAYER
 49
-0.5
 62
   256
  6
BYLAYER
  0
ENDSEC
  0
EOF
